VGJam Tabs Final Fantasy IX
Final Fantasy IX
"Song of Memories" - Guitar tab
Platform(s):PlayStation
Composed by:Nobuo Uematsu
Soundtrack:Final Fantasy IX Original Soundtrack (track D2-04)
Tabbed by:Disciplien
Last modified:2001-06-22
Print it:Original file (.TXT)
Hear it:MIDI file
This is the vocal part sung by Garnet/Dagger in the game 

                                Song of Memory


                                                                   Nobuo Uematsu
Final Fantasy IX


d=68

E||--1-----3--5--0------0--|--0--1--0---------------|--6--5--5--3--3-----1-----|
B||------------------------|-----------1--3------3--|-----------------------3--|
G||------------------------|------------------------|--------------------------|
D||------------------------|------------------------|--------------------------|
A||------------------------|------------------------|--------------------------|
E||------------------------|------------------------|--------------------------|



--0-1-3--------------|--1-----3--5--8-----5-----|-------------------|
---------------------|-----------------------5--|--3----------------|
---------------------|--------------------------|-------------------|
---------------------|--------------------------|-------------------|
---------------------|--------------------------|-------------------|
---------------------|--------------------------|-------------------|



--6--5--5--3--3--------|--8--6--6--5--5--3--5--6--|--8----------------|
-----------------------|--------------------------|-------------------|
-----------------------|--------------------------|-------------------|
-----------------------|--------------------------|-------------------|
-----------------------|--------------------------|-------------------|
-----------------------|--------------------------|-------------------|



--------5--6--5-----3--|--3--1--1------------||
-----------------5-----|---------------------||
-----------------------|---------------------||
-----------------------|---------------------||
-----------------------|---------------------||
-----------------------|---------------------||

VGJam Tabs Final Fantasy IX - "Song of Memories"
Tabs database last modified Tuesday, 01-Nov-2016 19:14:53 UTC.
Copyright © 1999 - 2016 VideoGameJam.com. All rights reserved.