VGJam Tabs Final Fantasy IX
Final Fantasy IX
"Song of Memories" - Guitar tab
Platform(s):PlayStation
Composed by:Nobuo Uematsu
Soundtrack:Final Fantasy IX Original Soundtrack (track D2-04)
Tabbed by:Felix. S
Last modified:2002-08-28
Print it:Original file (.TXT)
Hear it:MIDI file
#----------------------------------PLEASE NOTE--------------------------------#
#This file is the author's own work and represents their interpretation of the#
#song. You may only use this file for private study, scholarship, or research.#
#-----------------------------------------------------------------------------#

System            : Playstation
Game              : Final Fantasy IX
Title             : Song Of Memories (Melodies Of Life)
Tabbed By         : Felix. S (darkblue_fs@hotmail.com)
Time Signature    : 4/4

" Song Of Memories "


INTRO
E|----------1--3--1--0-----|----------1--6--1--3-----|----------1--3--1--0----|
B|-------1-----------1-----|-------3-----------3-----|-------1-----------1----|
G|----2-----------------2--|----3-----------------3--|----2-----------------2-|
D|-3-----------------------|-3-----------------------|-3----------------------|
A|-------------------------|-------------------------|------------------------|
E|-------------------------|-------------------------|------------------------|

E|----------1----8-----0--|-3--5--6--0--|
B|-------2-----2-----2----|-------------|
G|----3-------------------|-3--2--0-----|
D|-3----------------------|----------2--|
A|------------------------|-------------|
E|------------------------|-------------|

MAIN
E|-5--3--5--8--3------3-5--|
B|-1-----------1-----------|
G|-2-----------------------|
D|-3-----------3-----------|
A|-------------------------|
E|-------------------------|

E|-6--5--6--10--5------1--|-10--8--5--6--6--5--3--5--|-6-----1--3--0---------|
B|-3----------------------|-3------------3-----1-----|-3--3--3-----3------1--|
G|-0------------2---------|-3------------2-----2-----|-0---------------------|
D|--------------3---------|-3------------------------|-----------------------|
A|------------------------|--------------------------|-----------------------|
E|------------------------|--------------------------|-----------------------|


E|-1--3--5--8--3---------0-----3-5--|-3--5--6--8--10-----8--|
B|-------1------------1-------------|-------------4------1--|
G|----2-----------------------------|-0--3------------------|
D|-3-----------3--------------------|-----------------------|
A|----------------------------------|-----------------------|
E|----------------------------------|-----------------------|

E|-6--5--5--3--3--|-------------|
B|-3--------------|-1-------1---|
G|-------2-----0--|-------------|
D|----------------|---------3---|
A|----------------|-------------|
E|----------------|-------------|

REFF
E|-------3--5--0-----------0--|
B|-------1--------0--1--------|
G|----2--------2--------------|
D|-3--------------------------|
A|----------------------------|
E|----------------------------|

E|-0--1--0-----------------|-6--5--5--3--3--------1-----|
B|----------1--3--------3--|-------3-----------1--3--3--|
G|-3-----------3-----3--2--|-0--3--------3--------------|
D|-------------------------|----------------------------|
A|-------------------------|----------------------------|
E|-------------------------|----------------------------|

E|-0-1-3----------------0--|-1-----3--5--8------5--0--|
B|-1--------------3--1-----|-------1---------0--1-----|
G|-------------3-----------|----2--------2------------|
D|-------------------------|-3------------------------|
A|-------------------------|--------------------------|
E|-------------------------|--------------------------|

E|------------------------|-6--5--5--3--3-------1--|-8--6--6--5--5--3--5--6--|
B|-3--1-------------------|-3----------------3-----|-4-----------------------|
G|-3-----3--2--3----3--2--|-0----------------------|-0-----------------------|
D|------------------------|------------------------|-------------------------|
A|------------------------|------------------------|-------------------------|
E|------------------------|------------------------|-------------------------|

E|-8--1--3--6--3--1-----1--|-0-----5--6--5--0--3--|-3--1--1----0--1--3--5--6--||
B|-1-----------------3-----|----------------------|-------3----1--------1-----||
G|-------------------------|-0--------------------|----3----------3--0--------||
D|-------------------------|----------------------|-3----------------------3--||
A|-------------------------|----------------------|---------------------------||
E|-------------------------|----------------------|---------------------------||

That's All. Thanks.
VGJam Tabs Final Fantasy IX - "Song of Memories"
Tabs database last modified Tuesday, 01-Nov-2016 19:14:53 UTC.
Copyright © 1999 - 2016 VideoGameJam.com. All rights reserved.