VGJam Tabs Final Fantasy IX
Final Fantasy IX
"Hermit's Library - Daguerro" - Guitar tab
Platform(s):PlayStation
Composed by:Nobuo Uematsu
Soundtrack:Final Fantasy IX Original Soundtrack (track D4-02)
Tabbed by:Felix. S
Last modified:2002-08-28
Print it:Original file (.TXT)
Hear it:MIDI file
#----------------------------------PLEASE NOTE--------------------------------#
#This file is the author's own work and represents their interpretation of the#
#song. You may only use this file for private study, scholarship, or research.#
#-----------------------------------------------------------------------------#

System            : Playstation
Game              : Final Fantasy IX
Title             : Secret Library
Tabbed By         : Felix. S (darkblue_fs@hotmail.com)
Time Signature    : 3/4


" Secret Library "


e|-8-8---0---5---------0-1-0-----0---8-8---0-6-5-----1-0---------0---8-8---0---5---------0-1-0--|
B|-----8---8-----8-8-3---------1---8h----8---------3-----3-1---1---8h----8---8-----8-8-3--------|
G|----------------------------------------------------------------------------------------------|
D|----------------------------------------------------------------------------------------------|
A|----------------------------------------------------------------------------------------------|
E|----------------------------------------------------------------------------------------------|


e|---0---8-8---0-6-5-----1-0-------0-----0-5---0-1---0---0-----0-5---0-1---------0-----|
B|-1---8h----8---------3-----3-1-----8-3-----8-----3-------8-3-----8-----3-1---1---8h--|
G|-------------------------------------------------------------------------------------|
D|-------------------------------------------------------------------------------------|
A|-------------------------------------------------------------------------------------|
E|-------------------------------------------------------------------------------------|

e|-8-8---0---5---------0-1-0-----0---8-8---0-6-5-----1-0---------0-----|
B|-----8---8-----8-8-3---------1---8h----8---------3-----3-1---1---8h--|
G|---------------------------------------------------------------------|
D|---------------------------------------------------------------------|
A|---------------------------------------------------------------------|
E|---------------------------------------------------------------------|


e|-8-8---0---5---------0-1-0-----0---8-8---0-5---5h--1-0-----------1-0------0------1-0--|
B|-----8---8-----8-8-3---------1---8h----8---------3-----3-1---3-8------1-3----3-8------|
G|--------------------------------------------------------------------------------------|
D|--------------------------------------------------------------------------------------|
A|--------------------------------------------------------------------------------------|
E|--------------------------------------------------------------------------------------|


e|-----1-0------0------0-1--15-------1-0------0------1-0---0-5---1----0-1--5-7-5--3--5-7---||
B|-3-8------1-3----3h3-----------3-8------1-3----3-8-----------8----3----------------------||
G|-----------------------------------------------------------------------------------------||
D|-----------------------------------------------------------------------------------------||
A|-----------------------------------------------------------------------------------------||
E|-----------------------------------------------------------------------------------------||

VGJam Tabs Final Fantasy IX - "Hermit's Library - Daguerro"
Tabs database last modified Tuesday, 01-Nov-2016 19:14:53 UTC.
Copyright © 1999 - 2016 VideoGameJam.com. All rights reserved.