VGJam Tabs Final Fantasy IX
Final Fantasy IX
"You're Not Alone!" - Guitar tab
Platform(s):PlayStation
Composed by:Nobuo Uematsu
Soundtrack:Final Fantasy IX Original Soundtrack (track D4-09)
Tabbed by:Devin J. McCauley
Last modified:2001-10-19
Print it:Original file (.TXT)
Hear it:MIDI file
#----------------------------------PLEASE NOTE--------------------------------#
#This file is the author's own work and represents their interpretation of the#
#song. You may only use this file for private study, scholarship, or research.#
#-----------------------------------------------------------------------------#
#-- File created with Instab - http://www.pconline.com/~smcarey/instab.html --#
#-----------------------------------------------------------------------------#

Author/Artist: Nobuo Uematsu
Title: You're Not Alone!
Album: Final Fantasy IX soundtrack
Transcribed by: Devin J. McCauley
Email: STPDown43@aol.com

This is the song where Zidane is wandering through Pandemoniom trying to 
find himself.

--------------------------------0-0-0-----------------------------------------
-1-------------1-1-1-0----------------3-1---1-0---0-1-0---0-------------------
---2-0-2---------------2-0-2--------------------2-------2---------------------
---------2-------------------2------------------------------------------------
------------------------------------------------------------------------------
------------------------------------------------------------------------------



-----------------------------0---0-0-0----------------------------------------
-1-------------1-1-1-0-----0-----------3-1---1-0---1-0------------------------
---2-0-2---------------2-0-----------------------2-----2-0-2------------------
---------2--------------------------------------------------------------------
------------------------------------------------------------------------------
------------------------------------------------------------------------------



---------5----3---------------------------------8---7-------------------------
------------------5---3--3---3-5----------3-5---------------------------------
-5-4-2--------------5------5-----2--2---5-------------------------------------
------------------------------------------------------------------------------
------------------------------------------------------------------------------
------------------------------------------------------------------------------



-5-3-5-7-8---3-0-----------0--------------------------------------------------
-----------------3---3-1-3----------------------------------------------------
-----------------------------2---2---4-5-4-0-2--------------------------------
------------------------------------------------------------------------------
------------------------------------------------------------------------------
------------------------------------------------------------------------------

VGJam Tabs Final Fantasy IX - "You're Not Alone!"
Tabs database last modified Tuesday, 01-Nov-2016 19:14:53 UTC.
Copyright © 1999 - 2016 VideoGameJam.com. All rights reserved.