VGJam Tabs Final Fantasy IX
Final Fantasy IX
"Bittersweet Romance" - Guitar tab
Platform(s):PlayStation
Composed by:Nobuo Uematsu
Soundtrack:Final Fantasy IX Original Soundtrack (track D4-17)
Tabbed by:Felix. S
Last modified:2002-08-29
Print it:Original file (.TXT)
Hear it:MIDI file
#----------------------------------PLEASE NOTE--------------------------------#
#This file is the author's own work and represents their interpretation of the#
#song. You may only use this file for private study, scholarship, or research.#
#-----------------------------------------------------------------------------#

System            : Playstation
Game              : Final Fantasy IX
Title             : Bittersweet Romance
Tabbed By         : Felix. S (darkblue_fs@hotmail.com)
Time Signature    : 4/4

" Bittersweet Romance "


E|-17---21---16----12--|-10-----0-2-4-5-7-8---12---7----3--|-1---3-1-0----5--7--|
B|-2---------2---------|------3----------------------------|---1-------3--1--0--|
G|---------------------|----2-------------2--------0-------|--------------------|
D|-4---------2---------|-0---------------------------------|-3------------------|
A|---------------------|-----------------------------------|--------------------|
E|---------------------|-----------------------------------|--------------------|

E|-8----7--5-3----0--3--|-7--8-5----0------|-5---2---2--0------|-2------------|
B|------1------0--3-----|----1--------3-1--|-2--------------2--|---------2----|
G|---2------------------|------------------|-4---2------1------|-------2------|
D|-0---------2----------|-3----------------|-------------------|-4---4--------|
A|----------------------|------------------|-------------------|---4----------|
E|----------------------|------------------|-------------------|--------------|

E|-3-----0-----2-----------|-0--------2--3--2--3--5--|-7--------9--10---------9----7----|
B|----0-----0--3--0--3--0--|-1-----1--3-----1--0-----|-3--------0--3----3--0-----3---0--|
G|-------------------------|----0-----------------2--|-------0--------------------------|
D|-2-----------0-----------|-------------------------|----0--------0----------0---------|
A|-------------------------|-3-----------------------|-------------2----------2---------|
E|-------------------------|-------------------------|-3-----------2----------3---------|

E|-0--------3--0---------|-0--10--0--7--2----0--|-2--0--2--7--0-----|-0---0--2----|
B|----3--------1---------|-1--3---3-----3-------|-3-----2-----0-----|-1---1--3----|
G|-------------2------0--|-2------0-----2-------|-------2-----0-----|-------------|
D|-2-----2---------2-----|--------------4-------|-------------------|-----2--4----|
A|-3-----2-----0---------|----------------------|-------------------|-3---3--2----|
E|-0-----0---------0-----|----------------------|-------------------|-------------|

E|-0-----------------------|-0-----------------------|-------------0----2--|
B|-1---------1--0----------|-1-----1--0--------------|-------------1----3--|
G|-0------2----------------|----0--------2--0--------|---------------------|
D|-----2--4--2--0----4--0--|-4--2--2-----------4--2--|-0-------------------|
A|-0------------2----2-----|-3-----------------------|-3--3--2--0--3----2--|
E|-------------------------|-------------------------|---------------------|

E|-3-----2--0--2-----7------|-0-----------------------|-------------------------|
B|-1--------1--3-----0------|-------0-----0-----0-----|-------0-----0-----0-----|
G|-------2--------0---------|----0-----0-----0-----0--|----0-----0-----0-----0--|
D|----2--------------4------|-2-----------------------|-0-----------------------|
A|-0---------------------2--|-------------------------|-------------------------|
E|--------------------------|-------------------------|-------------------------|

E|-15-----14--12--10-----7---|-12-----0--3--7--12--15--19--|-12-15-19-24--||
B|--------1--------------0---|-----0-----------------------|--------------||
G|-----0---------------------|-----------------------------|--------------||
D|----------------0---4------|-2---------------------------|-2------------||
A|-3-------------------------|-----------------------------|--------------||
E|---------------------------|-----------------------------|--------------||


That's All. Thank You.
VGJam Tabs Final Fantasy IX - "Bittersweet Romance"
Tabs database last modified Tuesday, 01-Nov-2016 19:14:53 UTC.
Copyright © 1999 - 2016 VideoGameJam.com. All rights reserved.