VGJam Tabs Final Fantasy IX
Final Fantasy IX
"Melodies of Life ~ The Layers of Harmony" - Guitar tab
Platform(s):PlayStation
Composed by:Nobuo Uematsu
Soundtrack:Final Fantasy IX Original Soundtrack (track D4-26)
Tabbed by:Gregor Poloczek
Last modified:2002-03-31
Print it:Original file (.TXT)
Hear it:MIDI file
System:      Playstaion
Game:        Final Fantasy IX
OST:         CD 4 Track 26
Songtitle:   Melodies of Life - The Layers of Harmony
Composed by: Nobuo Uematsu

Tabbed by:   Gregor Poloczek (reaper84@yahoo.com)


The Intro might be slightly wrong, and the music bars are placed totaly 
wrong. ;)
Timing is pretty important for this song, don't play too fast and watch 
the lyric.

Enjoy playing. ^_^


Intro:
E|---------4~~---------|-----2~~-----0~~----|------0-----0--2--5-|--7~~---------------|
B|---------------------|--------------------|--2-4----2----------|--------------------|
G|---------------------|--------------------|--------------------|--------------------|
D|---------------------|--------------------|--------------------|--------------------|
A|---------------------|--------------------|--------------------|--------------------|
E|---------------------|--------------------|--------------------|--------------------|


Song:
E|---4----4---2--0-----|-0--------0--2------|-------0---------0--|-4--5--4--0---2--2--|
B|-0-------------------|----4-2-4------0----|-0-2-4---2--2--0----|--------------------|
G|---------------------|--------------------|--------------------|--------------------|
D|---------------------|--------------------|--------------------|--------------------|
A|---------------------|--------------------|--------------------|--------------------|
E|---------------------|--------------------|--------------------|--------------------|
   Alone for a while...

E|-5-7--7--9--7--5--5--|-4--4--2--2--4--5---|-4-2-0--------0-----|--2-----4-----5--2--|
B|---------------------|--------------------|----------0-2-------|--------------------|
G|---------------------|--------------------|--------------------|--------------------|
D|---------------------|--------------------|--------------------|--------------------|
A|---------------------|--------------------|--------------------|--------------------|
E|---------------------|--------------------|--------------------|--------------------|
   To weave while...                                           ...love's 
lost refrain.

E|---4----4---2--0-----|-0--------0--2------|-------0---------0--|-4--5--4--0---2--2--|
B|-0-------------------|----4-2-4------0----|-0-2-4---2--2--0----|--------------------|
G|---------------------|--------------------|--------------------|--------------------|
D|---------------------|--------------------|--------------------|--------------------|
A|---------------------|--------------------|--------------------|--------------------|
E|---------------------|--------------------|--------------------|--------------------|
  Our Paths...

E|-5-7--7--9--7--5--5--|-4--4--2--2--4--5---|-4-2-0--------0-----|--2-----4----2--0---|
B|---------------------|--------------------|----------0-2-------|--------------------|
G|---------------------|--------------------|--------------------|--------------------|
D|---------------------|--------------------|--------------------|--------------------|
A|---------------------|--------------------|--------------------|--------------------|
E|---------------------|--------------------|--------------------|--------------------|
  And who will hear...                        Let them ring...

E|-5--4--2--0-----0--2-|-5-7-5-4-2----1-2-4-|-5-----4------2-----|-4----5--4--2-0-----|
B|-------------4-------|--------------------|--------------------|--------------------|
G|---------------------|--------------------|--------------------|--------------------|
D|---------------------|--------------------|--------------------|--------------------|
A|---------------------|--------------------|--------------------|--------------------|
E|---------------------|--------------------|--------------------|--------------------|
  In my dearest...                           Now you've gone....   I still 
believe...

E|-----0---4---7--5--2-|-0-2-4------0-------|-5-4-4-2-2-0-----0-2|-0-2-4-7----4-0-----|
B|-4-------------------|-------4--4---4-0-2-|-------------2-4----|-----------------2--|
G|---------------------|--------------------|--------------------|--------------------|
D|---------------------|--------------------|--------------------|--------------------|
A|---------------------|--------------------|--------------------|--------------------|
E|---------------------|--------------------|--------------------|--------------------|
         ..on my name.   Voice from...                             And so 
it goes...

E|-5-4-4-2-2-----------|-7-5-5-4-4-2-4-5-7--|-4---5---4-------2--|-0-2-4-----0--------|
B|---------------------|--------------------|-------------4------|-------4-4---4-0--2-|
G|---------------------|--------------------|--------------------|--------------------|
D|---------------------|--------------------|--------------------|--------------------|
A|---------------------|--------------------|--------------------|--------------------|
E|---------------------|--------------------|--------------------|--------------------|
  Melodies of life...                        forever and beyond...    


E|-5-4-4-2-2-0-----0-2-|-0-2-4-7----4-0-----|-5-4-4-2-2----------|-7-5-5-4-4-2-4-5-7--|
B|-------------2-4-----|-----------------2--|--------------------|--------------------|
G|---------------------|--------------------|--------------------|--------------------|
D|---------------------|--------------------|--------------------|--------------------|
A|---------------------|--------------------|--------------------|--------------------|
E|---------------------|--------------------|--------------------|--------------------|


E|-4-5-4-----2-2----1--|
B|--------4------------|
G|---------------------|
D|---------------------|
A|---------------------|
E|---------------------|
  As long as we remember....

VGJam Tabs Final Fantasy IX - "Melodies of Life ~ The Layers of Harmony"
Tabs database last modified Tuesday, 01-Nov-2016 19:14:53 UTC.
Copyright © 1999 - 2016 VideoGameJam.com. All rights reserved.