VGJam Tabs Katamari Damacy
Katamari Damacy
"Katamaritaino" - Guitar tab
Platform(s):PlayStation 2
Composed by:Yu Miyake, Asuka Sakai, Akitaka Tohyama, Yuri Misumi, Hideki Tobeta, Yohihito Yano
Soundtrack:Katamari Damacy Soundtrack "Katamari Fortissimo Damacy" [COCX-32760] (track 14)
Tabbed by:Raphael Müller
Last modified:2005-10-01
Print it:Original file (.TXT)
Katamari Damacy (Playstation 2)
Namco Ltd. All rights reserved. 2003

Katamari Soundtrack
Track 14 - "Katamaritaino" (Who wrote the song anyway?)


Tabbed by Raphael Mller

I have transcribed the acoustic guitar part of this lovely song. There is also some wah-stuff on a 
second guitar in the beginning of the song, a second rythm guitar in the main part that plays the
chords on higher strings, and the jazzy solo at the end of the song. Unfortunately I haven't trans-
cribed them yet, but I hope I'll get to it soon. So, here it is, hope you have some fun with it 
and try to find the hidden present ;)


Playing sequence: Intro|2x Riff1|Intersec|Riff2|Riff1|Intersec|Riff3|Riff1|Intersec|
		  Riff2|Riff1|Intersec|Riff3|2xRiff1|Intersec|Riff2|Riff1|Intersec|2xRiff1  fadeout...

		Intro: 3xSec a1|Sec a2
		Riff1: Sec b1|Sec b2
		Riff2: Sec c1|Sec c2
		Riff3: 4xa1
		 
"*" means to "hold note"

Section a1:

[ 2x		      ]
[----------0----------|------------------------------0----------]
[--------3---3--------|----------3-----------------1---1--------]
[------2--------2---2-|--------3---3-------------0--------0---0-]
[----3------------3---|------3--------3---3----3------------3---]
[-1-------------------|----5------------5---0-------------------]
[---------------------|-3---------------------------------------]

Section a2:

[ 2x		      ]
[----------0----------|----------5--------------------5---]
[--------3---3--------|------------3----------------5-----]
[------2--------2---2-|--------3------3---3-------6-----6-]
[----3------------3---|------3----------3-------5---------]
[-1-------------------|----5------------------7-----------]
[---------------------|-3-------------------5-------------]


Section b1:

[ In Bossa Nova-Rythm	 ]
[----|--5-|--3-|----|----|-------]
[--5-|--3-|--3-|--6-|--5-|--6--6-]
[--5-|--3-|--3-|--6-|--5-|--6--6-]
[--3-|--5-|--2-|--5-|--3-|--4--4-]
[--5-|----|----|----|--5-|--6--6-]
[----|----|----|--5-|----|-------]

Section b2:

[ In Bossa Nova-Rythm	 ]
[----|--5-|--3-|----|----|----5-]
[--5-|--3-|--3-|--6-|--5-|-6*---]
[--5-|--3-|--3-|--6-|--5-|-5*---]
[--3-|--5-|--2-|--5-|--3-|-3*---]
[--5-|----|----|----|--5-|-5*---]
[----|----|----|--5-|----|------]

Intersection:

[ In Bossa Nova-Rythm ]
[----|-----]
[--4-|--5--]
[--3-|--5--]
[--5-|--3--]
[--3-|--5--]
[----|-----]

Section c1:

[ In Bossa Nova-Rythm	           ]
[----|----|--5-|----|--3-|----|----|-------]
[--3-|--5-|--5-|--6-|--3-|--6-|--5-|--6--6-]
[--3-|--3-|--5-|--7-|--3-|--6-|--5-|--5--5-]
[--3-|--5-|--3-|--7-|--2-|--5-|--3-|--3--3-]
[----|--3-|----|----|----|----|--5-|--5--5-]
[--3-|----|----|--6-|----|--5-|----|-------]

Section c2:

[ In Bossa Nova-Rythm	           ]
[----|----|--5-|----|--3-|----|----|----5-]
[--3-|--5-|--5-|--6-|--3-|--6-|--5-|-6*---]
[--3-|--3-|--5-|--7-|--3-|--6-|--5-|-5*---]
[--3-|--5-|--3-|--7-|--2-|--5-|--3-|-3*---]
[----|--3-|----|----|----|----|--5-|-5*---]
[--3-|----|----|--6-|----|--5-|----|------]


There are always variations on these patterns during the whole song. You can try to figure them out, but the recording is
not that good and they most probably were improvisations the guitar player never even wrote down, so I don't believe them 
to be too important. It's better to try some own improvisation on it! =) 

VGJam Tabs Katamari Damacy - "Katamaritaino"
Tabs database last modified Tuesday, 01-Nov-2016 19:14:53 UTC.
Copyright © 1999 - 2016 VideoGameJam.com. All rights reserved.