VGJam Tabs Guilty Gear
Guilty Gear
"Holy Orders" - Guitar tab
Platform(s):PlayStation
Tabbed by:COMMiE
Last modified:2002-05-23
Print it:Original file (.TXT)
Sony Playstation - Guitly Gear - Holy Orders (Also works for Guilty Gear X)
Tabbed By *COMMiE*
With the help of the ricknapalm TAB


 * = palm mute

 Intro Chord Progression - /me = too lazy to tab out the harpsicord   
 |--------------------------------|--------------------------------|
 |--------------------------------|--------------------------------|
 |--------------------------------|--------------------------------|
 |9-----------------------12------|11------8-------9-------------8-|
 |7-------9-------10------10------|9-------6-------7-------------6-|
 |--------7-------8---------------|--------------------------------|


 |--------------------------------|--------------------------------|
 |--------------------------------|--------------------------------|
 |--------------------------------|--------------------------------|
 |9---------------5---------------|----------------4---------------|
 |7-------9-------3-------5-------|4---------------2---------------|
 |--------7---------------3-------|2-------------------------------|


  
 Lead 1
 |--------------------------------|--------------------------------|
 |8-0-7-0-5-0-100-8-0-4-0-8-0-7-0-|----------------120-100-8-0-7-0-|
 |--------------------------------|--------------------------------|
 |--------------------------------|--------7---9-------------------|
 |--------------------------------|7---9-10--7---7-----------------|
 |--------------------------------|--------------------------------|

   
 |--------------------------------|----14121214121412--111212--1112|
 |108-7-8-12108-1013121012131210--|1313--------------12------12----|
 |------------------------------12|--------------------------------|
 |--------------------------------|--------------------------------|
 |--------------------------------|--------------------------------|
 |--------------------------------|--------------------------------|

 Under Lead 1 First Time only...
 |--------------------------------|--------------------------------|
 |--------------------------------|--------------------------------|
 |--------------------------------|--------------------------------|
 |9-9-9---------------------------|--------------------------------|
 |7-7-7---------------------------|--------------------------------|
 |--------------------------------|--------------------------------|


 |--------------------------------|--------------------------------|
 |--------------------------------|--------------------------------|
 |--------------------------------|--------------------------------|
 |5-------4-----------------------|----------------4---------------|
 |3-------2-------5-------7-------|5---------------2---------------|
 |----------------4-------5-------|3-------------------------------|



 Lead 2   
 |--------------------------------|--------------------------------|
 |8-0-7-0-5-0-100-8-0-7-0-8-0-7-0-|8-0-7-0-5-0-100-8-0-7-0-130-120-|
 |--------------------------------|--------------------------------|
 |--------------------------------|--------------------------------|
 |--------------------------------|--------------------------------|
 |--------------------------------|--------------------------------|

      
 |--------------------------------|--------------------------------|
 |8-0-7-0-5-0-100-8-0-7-0-8-0-7-0-|8-0-7-0-5-0-100-8-0-7-0-130-120-|
 |--------------------------------|--------------------------------|
 |--------------------------------|----------------------------7/9-|
 |--------------------------------|--------------------------------|
 |--------------------------------|--------------------------------|

 Under Lead 2 (Everytime)      
 |--------------------------------|--------------------------------|
 |--------------------------------|--------------------------------|
 |--------------------------------|--------------------------------|
 |--------------------------------|--------------------------------|
 |5h7---------7-----7-----7---7---|5h7-------------------------7---|
 |0---0-0-0-0-0-0-0-0-0-0-0-0-0-0-|0---0-0-0-0-0-0-0-0-0-0-0-0-0-0-|
      * * * *   * *   * *   *   *      * * * * * * * * * * * *   *
        
 |--------------------------------|--------------------------------|
 |--------------------------------|--------------------------------|
 |--------------------------------|--------------------------------|
 |--------------------------------|--------------------------------|
 |5h7---------7-----7-----7---7---|5h7-------------------------7---|
 |0---0-0-0-0-0-0-0-0-0-0-0-0-0-0-|0---0-0-0-0-0-0-0-0-0-0-0-0-0-0-|
      * * * *   * *   * *   *   *      * * * * * * * * * * * *   *



 Lead 3
 |--------------------------------|--------------------------------|
 |----------------8---------------|--------------------------------|
 |9---------------------------119-|8-----------9-118---------------|
 |------------7/9-----------------|------------------9-109---------|
 |--------------------------------|--------------------------------|
 |--------------------------------|--------------------------------|

        
 |--------------------------------|--------------------------------|
 |--------8-7---------------------|--------------------------------|
 |7---9-------9-8-----------------|------------9---8---------------|
 |----------------107-9-10--------|------7-------------109-----7/9-|
 |--------------------------------|7-------------------------------|
 |--------------------------------|--------------------------------|

     
 |--------------------------------|--------------------------------|
 |----------------7---------------|--------7-8-7---8-101213--1213--|
 |9-------------------------------|9-------------8-----------------|
 |------------7/9-------------7/9-|--------------------------------|
 |--------------------------------|--------------------------------|
 |--------------------------------|--------------------------------|

       
 |--------------------------------|----------------------------5-7-|
 |--------131210------------------|--------------------------------|
 |--------------1211----8-----8/9-|--------------------------------|
 |--------------------------------|--------------------------------|
 |--------------------------------|--------------------------------|
 |--------------------------------|--------------------------------|

 Under Lead 3     
 |--------------------------------|--------------------------------|
 |--------------------------------|--------------------------------|
 |--------------------------------|--------------------------------|
 |9-------------------------------|8-------------------------------|
 |7-7-7-7-7-7-7-7-7-7-7-7-7-7-7-7-|6-6-6-6-6-6-6-6-6-6-6-6-6-6-6-6-|
 |--------------------------------|--------------------------------|
    * * * * * * * * * * * * * * *    * * * * * * * * * * * * * * * 
  
 |--------------------------------|--------------------------------|
 |--------------------------------|--------------------------------|
 |--------------------------------|--------------------------------|
 |--------------------------------|--------------------------------|
 |10--------------9---------------|7-----7-------------7---5---4---|
 |8-8-8-8-8-8-8-8-7-7-7-7-7-7-7-7-|5-----5-----8-7-----5---3---2---|
    * * * * * * *   * * * * * * * 

       
 |--------------------------------|--------------------------------|
 |--------------------------------|--------------------------------|
 |--------------------------------|--------------------------------|
 |--------------------------------|--------------------------------|
 |2---------------4---------------|5---------------5---------------|
 |0---------------2---------------|3---------------4---------------|

  
 |--------------------------------|--------------------------------|
 |--------------------------------|--------------------------------|
 |--------------------------------|--------------------------------|
 |----------------4---------------|--------------------------------|
 |7---------------2---------------|2-----2-----5---2---------------|
 |5-------------------------------|0-----0-----3---0---------------|



 Keyboard Part A bit off due to the pitch shifting and strange tone.
 (If you have any suggestions on how this should actually be 
 feel free to 
 correct it at any time.)
 |8---------------7---------------|--------------------------------|
 |----------------------------108-|----------------10--1312--------|
 |--------------------------------|9-----11----9-11--11------------|
 |--------------------------------|--------------------------------|
 |--------------------------------|--------------------------------|
 |--------------------------------|--------------------------------|

       
 |8-------7-----------------------|--------------------------------|
 |----------108-7---7-8-10--8-7---|--------------------------------|
 |----------------8-------9-------|9-------------------------------|
 |--------------------------------|--------7-------9---------------|
 |--------------------------------|------------------------7-------|
 |--------------------------------|--------------------------------|

      
 |8---------------7---------------|--------------------------------|
 |----------------------------108-|----------------8---1210--------|
 |--------------------------------|9-----11----9-11--11------------|
 |--------------------------------|--------------------------------|
 |--------------------------------|--------------------------------|
 |--------------------------------|--------------------------------|

       
 |8-----7-------------------------|--------------------------------|
 |------------10--8---7-----------|--------------------------------|
 |------------------------9---8---|9-------------------------------|
 |--------------------------------|--------9-----------------------|
 |--------------------------------|----------------10------7-------|
 |--------------------------------|--------------------------------|

 Under Keybaord Part
 |--------------------------------|--------------------------------|
 |--------------------------------|--------------------------------|
 |--------------------------------|--------------------------------|
 |5---------------7---------------|--------------------------------|
 |3---------------5---------------|2-----2-------------------------|
 |--------------------------------|0-----0-----0-0-3-0-5-0---------|

    
 |--------------------------------|--------------------------------|
 |--------------------------------|--------------------------------|
 |--------------------------------|--------------------------------|
 |4---------------8---------------|9---------------5---------------|
 |2---------------6---------------|7-------9-------3-------5-------|
 |--------------------------------|--------7---------------3-------|

      
 |--------------------------------|--------------------------------|
 |--------------------------------|--------------------------------|
 |--------------------------------|--------------------------------|
 |5---------------7---------------|--------------------------------|
 |3---------------5---------------|2-----2-------------------------|
 |--------------------------------|0-----0-----0-0-3-0-5-0---------|

      
 |--------------------------------|--------------------------------|
 |--------------------------------|--------------------------------|
 |--------------------------------|--------------------------------|
 |4---------------8---------------|--------------------------------|
 |2---------------6---------------|2-------4-------5-------7-------|
 |--------------------------------|0-------2-------3-------5-------|



 Lead 4     
 |--------14--1215--------1412----|--------------------------------|
 |12--------------------------1513|--------------------------------|
 |--------------------------------|11------12119---------------1211|
 |--------------------------------|--------------12----------------|
 |--------------------------------|----------------10--------------|
 |--------------------------------|--------------------------------|

     
 |--------------------------------|--------------------------------|
 |------10----12----------151312--|--------------------------------|
 |12--------------11------------14|12------1412141416----16----16--|
 |--------------------------------|--------------------------------|
 |--------------------------------|--------------------------------|
 |--------------------------------|--------------------------------|

      
 |--------14--1215--------222019--|--------1514----2019--19--------|
 |12----------------------------20|19----------1715----------20--19|
 |--------------------------------|--------------------------------|
 |--------------------------------|--------------------------------|
 |--------------------------------|--------------------------------|
 |--------------------------------|--------------------------------|

       
 |------------20--19----2019171915|--------------------------------|
 |17------------------------------|17------------------------------|
 |--------------------------------|--------------------------------|
 |--------------------------------|--------------------------------|
 |--------------------------------|--------------------------------|
 |--------------------------------|--------------------------------|

 Under Lead 4 (The Solo)     
 |--------------------------------|--------------------------------|
 |--------------------------------|--------------------------------|
 |--------------------------------|--------------------------------|
 |9---------------5---------------|7-------------------------------|
 |7-7-7-7-7-7-7-7-3-3-3-3-3-3-3-3-|5-5-5-5-5-5-5-5-5---------------|
 |--------------------------------|----------------3-3-3-3-3-3-3-3-|

       
 |--------------------------------|--------------------------------|
 |--------------------------------|--------------------------------|
 |--------------------------------|--------------------------------|
 |5---------------7---------------|----------------------------4---|
 |3-3-3-3-3-3-3-3-5-5-5-5-5-5-5-5-|5---------------4-----4-----2---|
 |--------------------------------|3-3-3-3-3-3-3-3-2-----2---------|

        
 |--------------------------------|--------------------------------|
 |--------------------------------|--------------------------------|
 |--------------------------------|--------------------------------|
 |9---------------5---------------|7-------------------------------|
 |7-7-7-7-7-7-7-7-3-3-3-3-3-3-3-3-|5-5-5-5-5-5-5-5-5---------------|
 |--------------------------------|----------------3-3-3-3-3-3-3-3-|

       
 |--------------------------------|--------------------------------|
 |--------------------------------|--------------------------------|
 |--------------------------------|--------------------------------|
 |5-------------------------------|--------------------------------|
 |3-3-3-3-3-3-3-3-5---------------|2---------------5-------4-------|
 |----------------3-3-3-3-3-3-3-3-|0---------------3-------2-------|



 Lead 1
 |--------------------------------|--------------------------------|
 |8-0-7-0-5-0-100-8-0-4-0-8-0-7-0-|----------------120-100-8-0-7-0-|
 |--------------------------------|--------------------------------|
 |--------------------------------|--------7---9-------------------|
 |--------------------------------|7---9-10--7---7-----------------|
 |--------------------------------|--------------------------------|

   
 |--------------------------------|----14121214121412--111212--1112|
 |108-7-8-12108-1013121012131210--|1313--------------12------12----|
 |------------------------------12|--------------------------------|
 |--------------------------------|--------------------------------|
 |--------------------------------|--------------------------------|
 |--------------------------------|--------------------------------|

 Under Lead 1 The Second And Thrid Times       
 |--------------------------------|--------------------------------|
 |--------------------------------|--------------------------------|
 |--------------------------------|--------------------------------|
 |--------------------------------|--------------------------------|
 |2-------------------------------|--------------------------------|
 |0-------------------------------|--------------------------------|
         
 |--------------------------------|--------------------------------|
 |--------------------------------|--------------------------------|
 |--------------------------------|--------------------------------|
 |5-------4-----------------------|----------------4---------------|
 |3-------2-------5-------7-------|5---------------2---------------|
 |----------------4-------5-------|3-------------------------------|

VGJam Tabs Guilty Gear - "Holy Orders"
Tabs database last modified Tuesday, 01-Nov-2016 19:14:53 UTC.
Copyright © 1999 - 2016 VideoGameJam.com. All rights reserved.