VGJam Tabs Legend of Dragoon
Legend of Dragoon
"Battle theme" - Bass tab
Platform(s):PlayStation
Tabbed by:Fonz
Last modified:2000-12-29
Print it:Original file (.TXT)
       Game - Legend of Dragoon (PSX)
      Title - 'Battle Theme' (Well, the one you hear most often)
  Tabbed by - Fonz (Fonz@isgod.org)
      Notes - I wrote half of this tab with help by a Midi file, but the first
              part I learned by myself! If you find anything wrong, feel free
              to e-mail me!
              Oh, this is my first btab file.....
Corrections - (Dec 29th '00) - Well, looks like I found a problem the day I sent
                               it out.... I forgot that 5th fret on E is A

Bass Standard Tuning - Finger

Part 1
G||------------------|
D||------------------|
A||-------REST-------|
E||------------------|
   x6 (In other words, the bass gets the shaft for the intro =p)

Part 2
----------------------------|----------------------------|-------------------|-------------------|
---------------0--0---------|---------------0--0-1--1-2--|--3----------------|-------------------|
--0--0-2--2-3-------3--3-2--|--0--0-2--2-3---------------|-------------------|-------------------|
----------------------------|----------------------------|-------------------|--1----------------|
  x4 (Fun part to play, easy to remember)

Part 3
--0-------0----------0--|------------------------|------------------------|------------------------|
------0-----------0-----|--3-------3----------3--|--2-------2----------2--|--4---0---4-------0--4--|
------------------------|------3-----------3-----|------3-----------3-----|------------------------|
---------------3--------|---------------1--------|---------------0--------|---------------2--------|

                         
--0-------0----------0--|--2-------2----------2--|--3-------3----------3--|--5----------------|
------0-----------0-----|------2-----------2-----|------3-----------3-----|-------------------|
------------------------|---------------0--------|---------------1--------|-------------------|
---------------3--------|------------------------|------------------------|-------------------|
  x1 (There a pattern here that will help you remember it)

Part 4 
----------------------------|----------------------------|----------------------------|
---------------0--0---------|---------------0--0-1--1-2--|----------------------------|
--0--0-2--2-3-------3--3-2--|--0--0-2--2-3---------------|------------0--2--2-0--0----|
----------------------------|----------------------------|--1--1-3--3--------------3--|
                             
----------------------------|
--------------------0--0-2--|
-------0--0-2--3--3---------|
--3--3----------------------|
                             
  x2 (Once again, look for the pattern)

Part 3

Part 4 x2

Part 3

Part 4 x2

Part 3 again.... for the last time!

REPEAT!


VGJam Tabs Legend of Dragoon - "Battle theme"
Tabs database last modified Tuesday, 01-Nov-2016 19:14:53 UTC.
Copyright © 1999 - 2016 VideoGameJam.com. All rights reserved.