VGJam Tabs Lunar: Silver Star Story Complete
Lunar: Silver Star Story Complete
"Nocturne (boat song)" - Bass tab
Platform(s):PlayStation
Tabbed by:Blackbird
Last modified:2000-02-18
Print it:Original file (.TXT)
Hear it:MIDI file
#-------------------------------PLEASE NOTE------------------------------------#
#This file is the author's own work and represents their interpretation of the #
#song. You may only use this file for private study, scholarship, or research. #
#------------------------------------------------------------------------------#

Title: Nocturne (Lunar:SSSC Boat Song)
From a MIDI sequence by Ben Funk
Bass tablature by Blackbird (blk_bird@yahoo.com)

Intro
|----------|-----------|----------|----------|----------|----------|
|----------|-----------|----------|-2--------|-0--------|-2--------|
|-0--------|-0----2----|-----2----|----------|----------|----------|
|----------|-----------|----------|----------|----------|----------|

|---------------------|----------|
|-2----------2--------|----------|
|--------4-2----------|-0--------|
|---------------------|----------|

Verse
|----------|----------|----------|----------|------------|------------|
|----------|-2--------|-4--------|-2--------|-0----2---0-|------4-----|
|-0--------|----------|----------|----------|------------|-4-------4--|
|----------|----------|----------|----------|------------|------------|

|-----------|----------|---------------------|----------------------|
|-0-------0-|-2--------|-2------2------------|-0----------0---------|
|-----------|----------|----------2-0--------|--------0-2------0----|
|-----------|----------|---------------------|----------------------|

|----------|----------------------|------------|-------------|
|-0--------|----------------------|------4--2--|-0-----4--2--|
|----------|-0--------0---4--2-0--|-4----------|----0--------|
|----------|----------------------|------------|-------------|

|--------------|----------|
|-0------------|----------|
|----0--2--2-2-|-4--------|
|--------------|----------|

Verse 2 ("Is an angel watching closely over me...")
|-----------------------|--------------------------------------|
|-4----------4----------|-------------------------1------3-----|
|--------2-4------------|-1--------------1--4------------------|
|-----------------2--2--|--------------------------------------|

|----------------------|-------------|------------|----------------------|
|-1------1-1-----------|-------------|------3-----|------------1---------|
|------------4------4--|-2---------1-|-2----------|-----------------4----|
|----------------------|------2--4---|----------4-|-2------2-2-----------|

|-----------|----------------------|-----------------------|
|-----------|----------------------|-4----------4----------|
|-2----2----|-4------4-4-4---------|--------2-4------------|
|-----------|-------------------4--|-----------------2--2--|

|--------------------------------------|----------------------|
|-------------------------1------3-----|-1------1-1-----------|
|-1--------------1--4------------------|------------4------4--|
|--------------------------------------|----------------------|

|-------------|----------------------|----------------------|-----------|
|-------------|------------3----1----|------------1---------|-----------|
|-2---------1-|-2------2-2-----------|-----------------4----|-2----2----|
|------4--4---|----------------------|-2------2-2-----------|-----------|

|-----------|----------|
|-----------|----------|
|-4----4----|----------|
|-----------|-2--------|

Outro
|----------|----------|---------------------|----------|----------|----------|
|-4--------|----------|---------------------|-4--------|-4--------|-4--------|
|----------|----------|---------------------|----------|----------|----------|
|----------|-2--------|-2------------2-4-2--|----------|----------|----------|

|----------|
|----------|
|----------|
|-2--------|

------------------------------------------------------------------
Ewen "Blackbird" Cluney                         blk_bird@yahoo.com
Blackbird's Domain            http://www.geocities.com/tokyo/6127/
Knight Kevlar of the Immortal Frog        Silver Knight of Mihoshi
              "Be nice to me; I might just develop 
             psychokinetic powers and destroy Tokyo!"
------------------------------------------------------------------

VGJam Tabs Lunar: Silver Star Story Complete - "Nocturne (boat song)"
Tabs database last modified Tuesday, 01-Nov-2016 19:14:53 UTC.
Copyright © 1999 - 2016 VideoGameJam.com. All rights reserved.