VGJam Tabs Lunar: Silver Star Story Complete
Lunar: Silver Star Story Complete
"Recollection" - Guitar tab
Platform(s):PlayStation
Tabbed by:SJ
Last modified:2002-07-04
Print it:Original file (.TXT)
Recollection
         From Lunar
                 Tabbed by SJ (kirei_008@hotmail.com)

 ----------0--2--3--0----0--2--3--0---
 --0-----0-------------0--------------
 -------------------------------------
 -------------------------------------
 -------------------------------------

 -7---------7--5---------0-2-3-----0--2--3--0---
 -5---5---5----3----3--0--------0---------------
 ---4---4--------2--0---------------------------
 -----------------------------------------------
 -----------------------------------------------
 -----------------------------------------------

 --7---------7--7---5---3---2-------
 --5---5---5----7-----3---3-0-------
 ----4---4--------7-----------------
 -----------------------------------
 -----------------------------------
 -----------------------------------

   http://angelfire.com/anime3/chd
VGJam Tabs Lunar: Silver Star Story Complete - "Recollection"
Tabs database last modified Tuesday, 01-Nov-2016 19:14:53 UTC.
Copyright © 1999 - 2016 VideoGameJam.com. All rights reserved.