VGJam Tabs Lunar 2: Eternal Blue Complete
Lunar 2: Eternal Blue Complete
"Brave Warriors " - Guitar tab
Platform(s):PlayStation
Tabbed by:SJ
Last modified:2002-07-04
Print it:Original file (.TXT)
Brave Warriors
         Lunar 2
                 Tabbed by SJ (kirei_008@hotmail.com)

 The only part that is played by a guitar
 is the first little riff. The rest is played by,
 I think, violins. Still, it's a catchy song.

 -----------5--8--6--5--3--5--5--5----------------
 --3--5--6----------------------------------------
 -------------------------------------------------
 -------------------------------------------------
 -------------------------------------------------
 -------------------------------------------------

 -----------5--8--6--10--9------------------------
 --3--5--6-----------------10---------------------
 -------------------------------------------------
 -------------------------------------------------
 -------------------------------------------------
 -------------------------------------------------

 -----12--10----------------------------------
 -10----------10--11--10--11--10--11--10--11--
 ---------------------------------------------
 ---------------------------------------------
 ---------------------------------------------
 ---------------------------------------------

 --------------------------------------
 --10--8--10--11--8--11--13--11--6--8--
 --------------------------------------
 --------------------------------------
 --------------------------------------
 --------------------------------------


 ------12--10---------------------------------
 --10----------10--13--11--10--8--10----------
 ---------------------------------------------
 ---------------------------------------------
 ---------------------------------------------
 ---------------------------------------------

    
 ------------5--3------------------------------
 ---3--5--6--------6--5--6--5------------------
 ------------------------------5--2--5---------
 ----------------------------------------------
 ----------------------------------------------


 -b16-16- -----------------------
 -------- -s6--5--3--1-----1--3--
 -------- --------------2--------
 -------- -----------------------
 -------- -----------------------
 -------- -----------------------

   http://angelfire.com/anime3/chd
VGJam Tabs Lunar 2: Eternal Blue Complete - "Brave Warriors "
Tabs database last modified Tuesday, 01-Nov-2016 19:14:53 UTC.
Copyright © 1999 - 2016 VideoGameJam.com. All rights reserved.