VGJam Tabs Lunar 2: Eternal Blue Complete
Lunar 2: Eternal Blue Complete
"Desire " - Guitar tab
Platform(s):PlayStation
Tabbed by:SJ
Last modified:2002-07-04
Print it:Original file (.TXT)
Desire
         Lunar 2
                 Tabbed by SJ (kirei_008@hotmail.com)


 --5-----1--5--3--0--5--3--3--1--0-----5--0--
 -----1-----------------------------3--------
 --------------------------------------------
 --------------------------------------------
 --------------------------------------------
 --------------------------------------------

 --1--0--1--3--8--6--5--5--1--5--3--1--3------
 ---------------------------------------------
 ---------------------------------------------
 ---------------------------------------------
 ---------------------------------------------
 ---------------------------------------------

 --5-----1--5--3--0--5--3--3--1--0-----5--0--
 -----1-----------------------------3--------
 --------------------------------------------
 --------------------------------------------
 --------------------------------------------
 --------------------------------------------

 --1--0--1--3--8--6--5--5--1--1--1--0--1-----
 --------------------------------------------
 --------------------------------------------
 --------------------------------------------
 --------------------------------------------
 --------------------------------------------

 -------5-3--1-0-1-3-------------3--5--------
 ---3-3--------------1-----6-5-6-------------
 ----------------------3-3-------------------
 --------------------------------------------
 --------------------------------------------
 --------------------------------------------

 --4-4-6---4-3-1---6-3-----------1-3-1-4-----
 --------6-------4-------1-1-3-4-------------
 --------------------------------------------
 --------------------------------------------
 --------------------------------------------
 --------------------------------------------


 -5-6-8---------8-9--------------6-5-3-1-3-5-
 -------6-6-5-6-----6-6-5-6--3-3-------------
 --------------------------------------------
 --------------------------------------------
 --------------------------------------------
 --------------------------------------------

 -5-6-8---------8-9----------5-3-5-3-6-------
 -------6-6-5-6-----6-6-5-6------------------
 --------------------------------------------
 --------------------------------------------
 --------------------------------------------
 --------------------------------------------

 --5-3---3-----------------
 ------5---6-5-3--6-5-6----      
 --------------------------
 --------------------------
 --------------------------
 --------------------------

 -5-6-8---------8-9--------------6-5-3-1-3-5-
 -------6-6-5-6-----6-6-5-6--3-3-------------
 --------------------------------------------
 --------------------------------------------
 --------------------------------------------
 --------------------------------------------

 -5-6-8---------8-9-------------6-5-3--3p0h1-
 -------6-6-5-6-----6-6-5-6-3-3--------------
 --------------------------------------------
 --------------------------------------------
 --------------------------------------------
 --------------------------------------------

 -5-6-8---------8-9---------|-----6-5-3-1-3-5
 -------6-6-5-6-----6-6-5-6-|-3-3------------
 ---------------------------|----------------
 ---------------------------|----------------
 ---------------------------|----------------
 ---------------------------|----------------
                                 Optional 

 -5-6-8---------8-9---------
 -------6-6-5-6-----6-6-5-6-     then the song 
 ---------------------------     fades into silence...
 ---------------------------
 ---------------------------
 ---------------------------


                 Special Thanks to HighlordDamien@aol.com 
                 for correcting my mistake
                 5    0  was changed to... 5    1  5
                   1                          1

   http://angelfire.com/anime3/chd
VGJam Tabs Lunar 2: Eternal Blue Complete - "Desire "
Tabs database last modified Tuesday, 01-Nov-2016 19:14:53 UTC.
Copyright © 1999 - 2016 VideoGameJam.com. All rights reserved.