VGJam Tabs Lunar 2: Eternal Blue Complete
Lunar 2: Eternal Blue Complete
"Eternal Blue " - Guitar tab
Platform(s):PlayStation
Tabbed by:SJ
Last modified:2002-07-04
Print it:Original file (.TXT)
Lunar 2
         Eternal Blue
                 Tabbed by SJ (kirei_008@hotmail.com)

 Tune your guitars up 1 fret, so its E#A#D#G#B#E# or, if you're like
 me and don't feel like tuning your whole guitar, just tune the top 3 strings,

 so its 

 E#----7--9--9-------7--9--12--10--9----------
 B#-7-------------7---------------------------
 G#-------------------------------------------
 D--------------------------------------------
 A--------------------------------------------
 E--------------------------------------------

 ---------------------------------------------
 --10--10--8--8--10--12--12--14--12--10-------
 ---------------------------------------------
 ---------------------------------------------
 ---------------------------------------------
 ---------------------------------------------

 Repeat above

 Second Part, to be played while you are playing the above
 ----------------------------------------------------------
 --------11-12-14-15---14--15--17--15--14---------19-------
 --12-14-----------------------------------14--16-----18---
 ----------------------------------------------------------
 ----------------------------------------------------------
 ----------------------------------------------------------


 -------------------14--14-15-14-12--
 --14-14-15---15-19------------------
 ------------------------------------
 ------------------------------------
 ------------------------------------
 ------------------------------------

 -----------19--------------------------
 --19-17-19------19-17-----17-15-17-----
 ----------------------19-----------14--
 ---------------------------------------
 ---------------------------------------
 ---------------------------------------

 -----------22--21-19-------------------
 --19-17-19------------19-22------------
 ---------------------------------------
 ---------------------------------------
 ---------------------------------------
 ---------------------------------------

 I think the next part is a little too high for a guitar

   http://angelfire.com/anime3/chd
VGJam Tabs Lunar 2: Eternal Blue Complete - "Eternal Blue "
Tabs database last modified Tuesday, 01-Nov-2016 19:14:53 UTC.
Copyright © 1999 - 2016 VideoGameJam.com. All rights reserved.