VGJam Tabs Lunar 2: Eternal Blue Complete
Lunar 2: Eternal Blue Complete
"Lucia " - Guitar tab
Platform(s):PlayStation
Tabbed by:SJ
Last modified:2002-07-04
Print it:Original file (.TXT)
Lucia's Theme
         Lunar 2
           From the Lunar 2 OST
                 Tabbed by SJ (kirei_008@hotmail.com)
                 
 Wow, its amazing how many people requested that I finish tabbing this song,
 and I'm really sorry for waiting this long to tab it. 

         Intro
 --13--------------13--13--------------13-------
 --------------13------------------13-----------
 ------14--14--------------14--14---------------
 -----------------------------------------------
 -----------------------------------------------
 -----------------------------------------------

 --13--13--12--12--10--12--13--17--15--13--10--
 ----------------------------------------------
 ----------------------------------------------
 ----------------------------------------------
 ----------------------------------------------
 ----------------------------------------------

 --13--------------13--13--------------13-------
 --------------13------------------13-----------
 ------14--14--------------14--14---------------
 -----------------------------------------------
 -----------------------------------------------
 -----------------------------------------------

 --13--13--12--12--10--12--13--17--15--13--10--8--
 -------------------------------------------------
 -------------------------------------------------
 -------------------------------------------------
 -------------------------------------------------
 -------------------------------------------------

         Intermission
  2:02-2:09
 -----10-12-12-8--------10-12-15-13-12--
 --10----------------10-----------------
 ------------------7--------------------
 ----------------7----------------------
 ---------------------------------------
 ---------------------------------------

  2:10-2:18
 --------------10-12-13--13-15-13-15--
 --13-13-15-11------------------------
 -------------------------------------
 -------------------------------------
 -------------------------------------
 -------------------------------------

  2:21- 2:33
 ---------------------------------------------------------
 -----13-------------------13-11----------------10--------
 --12----15--14-15------12-------14-12--9-10-12----12-10--
 ------------------15-------------------------------------
 ---------------------------------------------------------
 ---------------------------------------------------------

  2:34- 2:40
 -15-13-15-18-17---15-15-13-15-18-17-15--
 ----------------------------------------
 ----------------------------------------
 ----------------------------------------
 ----------------------------------------
 ----------------------------------------

  2:45-2:56
 --10--10-12-13-13--12-10-12---12--12-13-15-15--13-12-13--
 ---------------------------------------------------------
 ---------------------------------------------------------
 ---------------------------------------------------------
 ---------------------------------------------------------
 ---------------------------------------------------------

  2:57-3:06

 --10------------13-11-10-------------------
 ------10--12-12-----------12-10---9-10-12--
 -------------------------------------------
 -------------------------------------------
 -------------------------------------------
 -------------------------------------------


   http://angelfire.com/anime3/chd
VGJam Tabs Lunar 2: Eternal Blue Complete - "Lucia "
Tabs database last modified Tuesday, 01-Nov-2016 19:14:53 UTC.
Copyright © 1999 - 2016 VideoGameJam.com. All rights reserved.