VGJam Tabs Animal Crossing
Animal Crossing
"Only Me" - Guitar tab
Platform(s):GameCube
Composed by:Kenta Nagata, Toru Minegishi, Shinobu Tanaka
Tabbed by:Mark Pineo
Last modified:2003-02-05
Print it:Original file (.TXT)
K.K Slider -  Only Me
Tabbed By Mark Pineo
Wdmp51@hotmail.com
www.mp3.com/cbmp (For my Band)
www.mp3.com/1051 (For my original Video Game Tunes)

Maybe if some of y’all learn this song, then the next generation of 
musicians will be able to come up with a normal F*ck*ng chord progression. 
That said this is the same as Unchained Melody.

                                               -The Author, Mark Pineo

Acoustic Guitar Riff (repeated throughout with triplet feel, it also clocks 
in at about 60 bpm, 120 with a ½ time feel of course)

Each dash = (Triplet) 16th note

  G           Em          C           D

E-------------------------------------------2---------------------
B-------------------------------1---------3---3-------------------
G-------0-----------0---------0---0-----2-------2-----------------
D-----0---0-------2---2-----2-------2-0---------------------------
A---2-------2---2-------2-3---------------------------------------
E-3-----------0---------------------------------------------------

  G           Em          C           D

E-------------------------------------------------
B---------5-7-8~----------8~------8-7-5~----------
G-7~----------------------------------------------
D-------------------------------------------------
A-------------------------------------------------
E-------------------------------------------------

  G           Em          C           D

E-------------------------------------5~--------6-
B---------5-7-8~----------8~------7-8-------------
G-7~----------------------------------------------
D-------------------------------------------------
A-------------------------------------------------
E-------------------------------------------------

  G           Em          C           D

E-7~---10-----7p5---------------------7---5-----5-
B-----------------8~--------------5-8---------8---
G-------------------------------------------------
D-------------------------------------------------
A-------------------------------------------------
E-------------------------------------------------


  G           Em          C           D

E-7~---10-----7p5---------------------7---5-----5-
B-----------------8~--------------5-8---------8---
G-------------------------------------------------
D-------------------------------------------------
A-------------------------------------------------
E-------------------------------------------------

  G           Em          C           D           G

E-7~---12-----7p5---------------------7---5----------
B-----------------8~--------------5-8---------8-7-8~-
G----------------------------------------------------
D----------------------------------------------------
A----------------------------------------------------
E----------------------------------------------------

VGJam Tabs Animal Crossing - "Only Me"
Tabs database last modified Monday, 21-Jul-2014 21:11:05 CDT.
Copyright © 1999 - 2014 VideoGameJam.com. All rights reserved.