VGJam Tabs Rumble Roses
Rumble Roses
"I'm Too Virtuous" - Guitar tab
Platform(s):PlayStation 2
Composed by:Various
Soundtrack:Rumble Roses Original Soundtrack [AVCD-17673] (track 08)
Tabbed by:Deezer
Last modified:2008-07-21
Date added:2008-07-21
Print it:Original file (.TXT)
#----------------------------------PLEASE NOTE---------------------------------#
#This file is the author's own work and represents their interpretation of the #
#song. You may only use this file for private study, scholarship, or research. #
#------------------------------------------------------------------------------#


Rumble Roses (PlayStation 2)
"I'm Too Virtuous"

Originally composed by: Akira Yamaoka
------------------------------------------------------------------------------
Tabbed by: Deezer (deezer AT videogamejam DOT com)
For http://www.videogamejam.com
------------------------------------------------------------------------------

Tuning: Down one half step - (low to high) Eb Ab Db Gb Bb eb

Key:
PM... = palm mute
   LR = let ring
    p = pull-off
    / = slide up
    \ = slide down
  (n) = held note


     D5                          (Dsus4)           (Dsus2)
eb|-------------------|-----------3--------------|--0------------0------------|
Bb|--3----------------|----------------3---------|-------3----------3---------|
Gb|--2----------------|---------------------2----|------------2---------------|
Db|--0----------------|--------------------------|----------------------------|
Ab|-------------------|--------------------------|----------------------------|
Eb|-------------------|--------------------------|----------------------------|

          (Dsus4)            D5                          (Dsus4)
-----------3--------------|-------------------|-----------3--------------|
----------------3---------|--3----------------|----------------3---------|
---------------------2----|--2----------------|---------------------2----|
--------------------------|--0----------------|--------------------------|
--------------------------|-------------------|--------------------------|
--------------------------|-------------------|--------------------------|

 (Dsus2)                      E5
--0------------------------|----------------------------|
-------3-------------------|----------------------------|
---------------------------|--9----9----9----9----9--9--|
---------------------------|--9----9----9----9----9--9--|
---------------------------|--7----7----7----7----7--7--|
---------------------------|----------------------------|


  C5 A5                                            Eb5  D5
------------------------------|----------------------------|
------------------------------|----------------------------|
--5--2--2p0-2-2--2-2--2p0-2-2-|----2-2--2p0-2-2--/-8----7--|
--5--2--2p0-2-2--2-2--2p0-2-2-|----2-2--2p0-2-2--/-8----7--|
--3--0--0---0-0--0-0--0---0-0-|----0-0--0---0-0--/-6----5--|
------------------------------|----------------------------|
     PM     . .  . .      . .      . .      . .


  C5 A5                                            Eb5  D5
------------------------------|----------------------------|
------------------------------|----------------------------|
--5--2--2p0-2-2--2-2--2p0-2-2-|----2-2--2p0-2-2--/-8----7--|
--5--2--2p0-2-2--2-2--2p0-2-2-|----2-2--2p0-2-2--/-8----7--|
--3--0--0---0-0--0-0--0---0-0-|----0-0--0---0-0--/-6----5--|
------------------------------|----------------------------|
     PM     . .  . .      . .      . .      . .


  C5 A5                                            Eb5  D5
------------------------------|----------------------------|
------------------------------|----------------------------|
--5--2--2p0-2-2--2-2--2p0-2-2-|----2-2--2p0-2-2--/-8----7--|
--5--2--2p0-2-2--2-2--2p0-2-2-|----2-2--2p0-2-2--/-8----7--|
--3--0--0---0-0--0-0--0---0-0-|----0-0--0---0-0--/-6----5--|
------------------------------|----------------------------|
     PM     . .  . .      . .      . .      . .


  C5 A5                                            Eb5  D5
------------------------------|----------------------------|
------------------------------|----------------------------|
--5--2--2p0-2-2--2-2--2p0-2-2-|----2-2--2p0-2-2--/-8----7--|
--5--2--2p0-2-2--2-2--2p0-2-2-|----2-2--2p0-2-2--/-8----7--|
--3--0--0---0-0--0-0--0---0-0-|----0-0--0---0-0--/-6----5--|
------------------------------|----------------------------|
     PM     . .  . .      . .      . .      . . 


  C5 E5      G5            F#5        F5            E5         G5
-----------------3------|------2----------1------|-----------------3------|
------------------------|------------------------|------------------------|
-\5---------------------|------------------------|------------------------|
-\5---------------------|------------------------|------------------------|
-\3--2-------5----------|--4----------3----------|-----2-------5----------|
-----0-------3----------|--2----------1----------|--0--0-------3----------|
             LR            LR         LR            PM         LR


  F#5        F5            E5         G5            F#5        F5
------2----------1------|-----------------3------|------2----------1------|
------------------------|------------------------|------------------------|
------------------------|------------------------|------------------------|
------------------------|------------------------|------------------------|
--4----------3----------|-----2-------5----------|--4----------3----------|
--2----------1----------|--0--0-------3----------|--2----------1----------|
  LR         LR            PM         LR            LR         LR


  E5         G5            F#5        F5
-----------------3------|------2----------1------|
------------------------|------------------------|
------------------------|------------------------|
------------------------|------------------------|
-----2-------5----------|--4----------3----------|
--0--0-------3----------|--2----------1----------|
     PM      LR            LR         LR


                  E5                                  Bb5  A5
---------------------------------|----------------------------|
---------------------------------|----------------------------|
---------------------------------|----------------------------|
------------------2--2-----------|--2--2-----------2--8----7--|
------------------2--2-----------|--2--2-----------2--8----7--|
--0-0-0-0-0-0-0-0-0--0-0-0-0-0-0-|--0--0-0-0-0-0-0-0--6----5--|
  PM.............      .........         .........


                  E5                                  Bb5  A5
---------------------------------|----------------------------|
---------------------------------|----------------------------|
---------------------------------|----------------------------|
------------------2--------------|--2--------------2--8----7--|
------------------2--------------|--2--------------2--8----7--|
--0-0-0-0-0-0-0-0-0--0-0-0-0-0-0-|--0--0-0-0-0-0-0-0--6----5--|
  PM.............    ...........       ...........


                  E5                                  Bb5  A5
---------------------------------|----------------------------|
---------------------------------|----------------------------|
---------------------------------|----------------------------|
------------------2--2-----------|--2--------------2--8----7--|
------------------2--2-----------|--2--------------2--8----7--|
--0-0-0-0-0-0-0-0-0--0-0-0-0-0-0-|--0--0-0-0-0-0-0-0--6----5--|
  PM.............      .........       ...........


                  E5                                   Bb5  A5
---------------------------------|-----------------------------|
---------------------------------|-----------------------------|
---------------------------------|-----------------------------|
------------------2--------------|--2---2-----------2--8----7--|
------------------2--------------|--2---2-----------2--8----7--|
--0-0-0-0-0-0-0-0-0--0-0-0-0-0-0-|--0---0-0-0-0-0-0-0--6----5--|
  PM.............    ...........          .........
                                      ^16th-note rest


     Bb5  A5    Bb5  A5    G5    A5 E5
------------------------|----------------------------|-------------------|
------------------------|----------------------------|-------------------|
------------------------|----------------------------|-------------------|
-----8----7-----8----7--|--5-----7--2----2----2----2-|---(2)-/-14\-------|
-----8----7-----8----7--|--5-----7--2----2----2----2-|---(2)-/-14\-------|
-----6----5--3--6----5--|--3--0--5--0----0----0----0-|-------------------|


Last modified: 07/21/08

VGJam Tabs Rumble Roses - "I'm Too Virtuous"
Tabs database last modified Tuesday, 01-Nov-2016 19:14:53 UTC.
Copyright © 1999 - 2016 VideoGameJam.com. All rights reserved.