VGJam Tabs Lunar 2: Eternal Blue Complete
Lunar 2: Eternal Blue Complete
"Promenade " - Guitar tab
Platform(s):PlayStation
Tabbed by:SJ
Last modified:2002-07-04
Print it:Original file (.TXT)
Promenade
         Lunar 2
                 Tabbed by SJ (kirei_008@hotmail.com)
  http://angelfire.com/anime3/chd
 ------------------------------------------
 ------------------------------------------
 --------------------------------------17--
 -------14-17-15-14--15----17-15-14-15-----
 -15-17-----------------15-----------------
 ------------------------------------------

  8 seconds
 ----------------------------------------------------
 ------------------------------------------------15--
 -17-15-15-14-14------------14-14-14-15-14-13-14-----
 ----------------17-16-17----------------------------
 ----------------------------------------------------
 ----------------------------------------------------

  19 sec
 ----------------------------
 -----------------------15---
 --12-12-12-14-12-11-12------
 ----------------------------
 ----------------------------
 ----------------------------

  29 sec
 --------------------------------------------------------------------
 -15-18-18--13-------11-13----13-13----11-11-11-11-12-12-12-11h12-13-
 --------------12-14-------14-------14-------------------------------
 --------------------------------------------------------------------
 --------------------------------------------------------------------
 --------------------------------------------------------------------

  44 sec
 ----------------------------------------------------
 -----------------------15-----------------------15--
 --14-14-14-15-14-13-14-----12-12-12-14-12-11-12-----
 ----------------------------------------------------
 ----------------------------------------------------
 ----------------------------------------------------

  58 sec
 --------------------------------------------------------------------
 -15-18-18--13-------11-13----13-13----------------------------------
 --------------12-14-------14-------14--------------14-12------------
 ---------------------------------------12-12-14-15-------15-17-15---
 --------------------------------------------------------------------
 --------------------------------------------------------------------

  1:10 min
 --------------------------------------------------------------------
 --------------------------------------------------------------------
 ----14-15-17-17--17-15-14-15-----------------------------15-13-12---
 -15--------------------------15----15-18-17-15--15-17-13------------
 --------------------------------------------------------------------
 --------------------------------------------------------------------

  1:25 min
 --------------------------------------------------------------------
 --------------------------------------------------------------------
 --------------------15-15----15-17------17-15-13--17-15-13-17-------
 -15-17-18-17--17-18-------18-------15-------------------------------
 --------------------------------------------------------------------
 --------------------------------------------------------------------
   
  1:40 min
 ----------------------------------------------------------------------
 ----------------------------------------------------------------------
 ----------------------------------------------------17-(15-14-12-14)--
 -------14-17-15-14--15----(20-19-17-19)-17-15-14-15-------------------
 -15-17-----------------15---------------------------------------------
 ----------------------------------------------------------------------

  1:47 min
 -------------------------------------------------------------------------
 ----------------------------------------------------------------------14-
 --17-15-15-14-14-12-11-12--(15-14-12-10)--------------12--14-14-13-14----
 ------------------------------------------12-12-14-15--------------------
 -------------------------------------------------------------------------
 -------------------------------------------------------------------------

  2:00 min
 -------------------------------
 -------------------------------
 -15-14--15-14----------14-12---
 --------------12-14-15---------
 -------------------------------
 -------------------------------

  2:07 min
 ----------------------------------------------------------------------
 ----------------------------------------------------------------------
 ----------------------------------------------------17-(15-14-12-14)--
 -------14-17-15-14--15----(20-19-17-19)-17-15-14-15-------------------
 -15-17-----------------15---------------------------------------------
 ----------------------------------------------------------------------

  2:15 min
 -------------------------------------------------------------------------
 ----------------------------------------------------------------------14-
 --17-15-15-14-14-12-11-12--(15-14-12-10)--------------12--14-14-13-14----
 ------------------------------------------12-12-14-15--------------------
 -------------------------------------------------------------------------
 -------------------------------------------------------------------------

  2:29min
 -------------------------------
 -------------------------------
 -15-14--15-14----------14-12---
 --------------12-14-15---------
 -------------------------------
  thats it! Well, technically it's supposed to repeat, but this is all you
 need to 
  know. 

VGJam Tabs Lunar 2: Eternal Blue Complete - "Promenade "
Tabs database last modified Tuesday, 01-Nov-2016 19:14:53 UTC.
Copyright © 1999 - 2016 VideoGameJam.com. All rights reserved.