VGJam Tabs Mega Man X4
Mega Man X4
"Zero's theme" - Guitar tab
Platform(s):PlayStation
Tabbed by:Livewire626
Last modified:2002-03-24
Print it:Original file (.TXT)
Hear it:MIDI file
Title:MegaMan x4-Zero's Theme
tabbed by:Livewire626
Comments:I got every thing except for the solo....

h = hammer on
p = pull off

|----------------------|---------------------|---------------------|
|----------------------|---------------------|---------------------|
|-1--1-1-1-1-1--1-1-1-1|3--3-3-3-3-3--3-3-3-3|5--5-5-5-5-5--5-5-5-5|
|----------------------|---------------------|---------------------|
|----------------------|---------------------|---------------------|
|----------------------|---------------------|---------------------|

|------------------------|-----|---------|------|-------------|
|------------------------|-----|---------|------|-13--11p9----|
|5--5-5-5-5-5-5-5-5-5-5-5|-5-7-|-8-10-12-|-8-10-|----------12-|
|------------------------|-----|---------|------|-------------|
|------------------------|-----|---------|------|-------------|
|------------------------|-----|---------|------|-------------|

|-----|--------|---------------|----|-8-10-11-|13-8-|10-11-13|16-15-13|
|-----|--------|---------------|----|---------|-----|--------|--------|
|-5-7-|-7-8-10-|-8--10p8-7--9p7|5-3-|---------|-----|--------|--------|
|-----|--------|---------------|----|---------|-----|--------|--------|
|-----|--------|---------------|----|---------|-----|--------|--------|
|-----|--------|---------------|----|---------|-----|--------|--------|

|-8-10-11|-13--11--13-15-|15|-15/3-|-8-8-|-8-10-11-|-11-11-|-11-13-15-|
|--------|---------------|--|------|-----|---------|-------|----------|
|--------|---------------|--|------|-----|---------|-------|----------|
|--------|---------------|--|------|-----|---------|-------|----------|
|--------|---------------|--|------|-----|---------|-------|----------|
|--------|---------------|--|------|-----|---------|-------|----------|

|-8-8-|-8-10-11-|-11-15-13-18-|16h18-20-|
|-----|---------|-------------|---------|
|-----|---------|-------------|---------|
|-----|---------|-------------|---------|
|-----|---------|-------------|---------|
|-----|---------|-------------|---------|
Solo...
|-15-----------------------------------15
|-----18p17p15----------15h17h18p17h18---
|--------------17p15h17------------------
|----------------------------------------
|----------------------------------------
|----------------------------------------

|-16h18-20p19p16-19p16p15----15------------------------------
|-------------------------18----18p17p16----15h16h18-16h18p16
|----------------------------------------16------------------
|------------------------------------------------------------
|------------------------------------------------------------
|------------------------------------------------------------

|-15-------15-------15h16p15-------15-------
|----18p17----18p16----------18-18----18p16-
|-------------------------------------------
|-------------------------------------------
|-------------------------------------------
|-------------------------------------------

|----14-------------------------------------------
|-15----15----------------------------------------
|----------17-16----------------------------------
|----------------15-------------------------14-15-
|-------------------18-17----14-15-17-18-17-------
|-------------------------17----------------------

I only have 21 frets so I'm guessing on this part :P
|-20--22--23--20-19-16-|-16-18-20-19-15-18-15-15--------------
|----------------------|--------------------------------------
|----------------------|--------------------------------------
|----------------------|--------------------------------------
|----------------------|--------------------------------------
|----------------------|--------------------------------------

INCOMPLETE. Sorry...maybe I'll finish it someday...

VGJam Tabs Mega Man X4 - "Zero's theme"
Tabs database last modified Tuesday, 01-Nov-2016 19:14:53 UTC.
Copyright © 1999 - 2016 VideoGameJam.com. All rights reserved.