VGJam Tabs Resident Evil
Resident Evil
"Moonlight Sonata" - Guitar tab
Platform(s):PlayStation
Tabbed by:David Lowmiller
Last modified:2002-01-13
Print it:Original file (.TXT)
Hear it:MIDI file
Moonlight Sonata
First Movement, Op. 27, No. 2
Original Score by Ludwig van Beethoven
Tabbed by David Lowmiller
Email: dlowmiller@prodigy.net

Standard tuning (EBGDAE)
Note: This piece must be fingerpicked.
Adagio sostenuto

    (sempre pp)

E-------0-----0-----0-----0---|
B---1-2---1-2---1-2---1-2-----|
G-----------------------------|
D-----------------------------|
A---4-------------------------|
E-----------------------------|

    * - una corda

E-------0-----0-----0-----0---|
B---1*2---1-2---1-2---1-2-----|
G-----------------------------|
D-----------------------------|
A---2*------------------------|
E-----------------------------|

                () - barre


E-------0-----0----(2)---(2)--|
B-----2-----2----(2)---(2)----|
G---2-----2----(2)---(2)------|
D-----------------------------|
A---0-------------------------|
E--------------(2)------------|

E-------2-----0---------------|
B----(1)----2-----2-4--(1)4---|
G--(1)----1-----1----(1)------|
D-----------------------------|
A-----------------------------|
E---4-------------------------|

To be continued...

Note:  Those are only the first 4 measures of the song.  There are a total 
of 67 measures in all.  If anyone is truly interested in this piece, I will 
tab it out to it's entirety.  It's a little tricky, similar in difficulty 
to "The Nightmare's Beginning" (Vincent Valentine's theme song from Final 
Fantasy VII) by Nobuo Uematsu.  It's a very dark, somber piece, and is quite 
a technical piece, if not in difficulty of pulling off, then at least in 
it's function.  I mean, come on. it's Beethoven, you know?  :)

VGJam Tabs Resident Evil - "Moonlight Sonata"
Tabs database last modified Tuesday, 01-Nov-2016 19:14:53 UTC.
Copyright © 1999 - 2016 VideoGameJam.com. All rights reserved.