VGJam Tabs Resident Evil
Resident Evil
"Still Dawn" - Guitar tab
Platform(s):PlayStation
Tabbed by:wildavidg
Last modified:2000-05-06
Print it:Original file (.TXT)
#----------------------------------PLEASE NOTE---------------------------------#
#This file is the author's own work and represents their interpretation of the #
#song. You may only use this file for private study, scholarship, or research. #
#------------------------------------------------------------------------------#

This got a lot of requests, so here you are. "Still Dawn", 
the song during the credits of Resident Evil.

                     (G.I & G.II )
----------------------8--7--10--9--------------------------------
-12b~------------------------------------------8-6-5-------------
----------10b~--------5--4--7---9----7b-7b-7-5-------4-5-7-------
-----------------------------------------------------------5~----
-----------------------------------------------------------------
-----------------------------------------------------------------

--------------------------------------7--------------------------
--------------------------8-6-5---/10----8~----------------------
----------------7b-7b-7-5-------7--------------------------------
-2-3-5~----------------------------------------------------------
-----------------------------------------------------------------
-----------------------------------------------------------------

-----13\-5----12\-5-----------------10-------10-12--10-12-13-----
-/10------/10-------10--13-10-12-13----12-13---------------------
-----------------------------------------------------------------
-----------------------------------------------------------------
-----------------------------------------------------------------
-----------------------------------------------------------------

-10-12-13-15\--15b-15b-15\----10h12p10----10-13b-------15b-15\---
---------------------------------------13--------13-13-----------
-----------------------------------------------------------------
-----------------------------------------------------------------
-----------------------------------------------------------------
-----------------------------------------------------------------

-------15-----13-12--13p12----------12------17------/17\---------
-17-18----18b--------------14-14-15----/15-----15-14-------------
-----------------------------------------------------------------
-----------------------------------------------------------------
-----------------------------------------------------------------
-----------------------------------------------------------------

-17-19-19b--19b-19-17-15~\------13b---------13b-13--11b-11-10----
-------------------------------------13-13-----------------------
-----------------------------------------------------------------
-----------------------------------------------------------------
-----------------------------------------------------------------
-----------------------------------------------------------------

 G.I
|-8--/20\---/15-------15br--------15-----------------------------
|---------------13-13-------17-18----18b--18-17-18\-14-14-15-17\-
|----------------------------------------------------------------
|----------------------------------------------------------------
|----------------------------------------------------------------
|----------------------------------------------------------------
|G.II
|-13--12-10-12----------------------------------------------------
|-----------------------------------------------------------------
|-----------------------------------------------------------------
|-----------------------------------------------------------------
|-----------------------------------------------------------------
|-----------------------------------------------------------------

-----17-------17\--17-19-19h20-20-20br-19~--/15-------15br-------
-/15----15-14-----------------------------------13-13------------
-----------------------------------------------------------------
-----------------------------------------------------------------
-----------------------------------------------------------------
-----------------------------------------------------------------

-------15--------------------------------17-------17\------------
-17-18----18b-18-17--17-14-14-15-17--/15----15-14----------------
-----------------------------------------------------------------
-----------------------------------------------------------------
-----------------------------------------------------------------
-----------------------------------------------------------------

 G.I
|-17-19-19b-19b-19-17-15~\-13b--13b-13b-13-11-13-----------------
|----------------------------------------------------------------
|----------------------------------------------------------------
|----------------------------------------------------------------
|----------------------------------------------------------------
|----------------------------------------------------------------
|G.II
|----------------------------------------------------------------
|----------------------------------------------------------------
|---------------------------------------------------8-10-10b-----
|------------------------------------------------10--------------
|----------------------------------------------------------------
|----------------------------------------------------------------

 G.I
|-11-13-13brp11----/20-20b-18----11-13-13b---------13b--13-------
|--------------13-------------------------13-13------------------
|----------------------------------------------------------------
|----------------------------------------------------------------
|----------------------------------------------------------------
|----------------------------------------------------------------
|G.II
|----------------------------------------------------------------
|----------------------------------------------------------------
|-10brp8---------------------------------------------------------
|--------10------------------------------------------------------
|------------------10\8~\----------------------------------------
|----------------------------------------------------------------

 G.I
|-11b-11-10-8----/20----------------------------------------------
|-----------------------------------------------------------------
|-----------------------------------------------------------------
|-----------------------------------------------------------------
|-----------------------------------------------------------------
|-----------------------------------------------------------------
|G.II
|-----------13----12-10-12----------------------------------------
|-----------------------------------------------------------------
|-----------------------------------------------------------------
|-----------------------------------------------------------------
|-----------------------------------------------------------------
|-----------------------------------------------------------------
        
--6b---|8-6-----8-6---6-----|-------------------------------------
-------|----8-7-----8---8-7-|-------------------------------------
-------|--------------------|-------------------------------------
-------|--------------------|-------------------------------------
-------|-----  (4X)  -------|-------------------------------------
-------|--------------------|-------------------------------------

-----------------------------------------------------------------
--8-7-6-8-7-6----------------------------------------------------
--------------8-5--------8--10b-10-8--7h8p7---7------------------
--------------------8/10--------------------8---8/10-8-----------
-------------------------------------------------------10-8\6----
-----------------------------------------------------------------

-----------------------------------------------------------------
-----------------------------------------------------------------
-----------------------------------------------------------------
-----------------------------------------------------------------
--8p6--------6---6-8b-8b--8br-6----------------------------------
------8--6/8---8----------------8--------------------------------

See? Just relax and play.

wildavidg@aol.com
VGJam Tabs Resident Evil - "Still Dawn"
Tabs database last modified Tuesday, 01-Nov-2016 19:14:53 UTC.
Copyright © 1999 - 2016 VideoGameJam.com. All rights reserved.