VGJam Tabs Shadow Madness
Shadow Madness
"Nursing Home" - Guitar tab
Platform(s):PlayStation
Tabbed by:PsoneRPG
Last modified:2008-03-13
Date added:2008-07-17
Print it:Original file (.TXT)
             SHADOW MADNESS Nursing Home - Acoustic Tab -

             Tabbed By: PsoneRPG


E|----------------------|----------------------|--------------------|--------------------|--
B|----------------------|----------------------|--------------------|--------------------|--
G|----------------------|----------------------|--------------------|--------------------|--
D|------------9---------|------------9---------|-----------7--------|-----------7--------|--
A|---------9-----9------|---------9-----9------|-----4--7-----7--4--|-----4--7-----4--7--|--
E|--7--10-----------10--|--7--10-----------10--|--5-----------------|--5-----------------|--

E|--------------------|--------------------|--------------------|--------------------|--
B|--------------------|--------------------|--------------------|--------------------|--
G|-----------4--------|-----------4--------|-----------2--------|-----------5--4--2--|--
D|--------5-----5-----|--------5-----5-----|--------3-----3-----|--------3-----------|--
A|-----5-----------5--|-----5-----------5--|-----3-----------3--|-----3--------------|--
E|--3-----------------|--3-----------------|--1-----------------|--1-----------------|--

E|-----------------|--------|-----------5--3--------|-----------------------|--
B|-----------------|--------|-----------------------|-----------3-----------|--
G|-----------5-----|--------|-----------------------|--------4-----4-----4--|--
D|--------2-----4--|--------|-----4--5--------5--4--|-----4-----------4-----|--
A|-----2-----------|--5--2--|-----------------------|--2--------------------|--
E|--0--------------|--------|--0--------------------|-----------------------|--


E|--------------------------|--------------------|--------|--------------------------|--
B|-----------7--3--2--------|-----------------5--|--------|-----------5--------------|--
G|--------4-----------4-----|--------------7-----|--7-----|--------------7-----------|--
D|-----4-----------------4--|-----4--5-----------|-----5--|-----4--5--------5--4--5--|--
A|--2-----------------------|--3-----------------|--------|--3-----------------------|--
E|--------------------------|--------------------|--------|--------------------------|--

E|--------------------|--------------------------|--
B|--------------------|-----------5--------------|--
G|-----------7--------|--------------7-----------|--
D|-----4--5-----5--4--|-----4--5--------5--4--5--|--
A|--5-----------------|--5-----------------------|--
E|--------------------|--------------------------|--


E|----------------------|----------------------|--------------------|--------------------|--
B|----------------------|----------------------|--------------------|--------------------|--
G|----------------------|----------------------|--------------------|--------------------|--
D|------------9---------|------------9---------|-----------7--------|-----------7--------|--
A|---------9-----9------|---------9-----9------|-----4--7-----7--4--|-----4--7-----4--7--|--
E|--7--10-----------10--|--7--10-----------10--|--5-----------------|--5-----------------|--

E|--------------------|--------------------|--------------------|--------------------|--
B|--------------------|--------------------|--------------------|--------------------|--
G|-----------4--------|-----------4--------|-----------2--------|-----------5--4--2--|--
D|--------5-----5-----|--------5-----5-----|--------3-----3-----|--------3-----------|--
A|-----5-----------5--|-----5-----------5--|-----3-----------3--|-----3--------------|--
E|--3-----------------|--3-----------------|--1-----------------|--1-----------------|--

E|-----------------|--------|-----------5--3--------|-----------------------|--
B|-----------------|--------|-----------------------|-----------3-----------|--
G|-----------5-----|--------|-----------------------|--------4-----4-----4--|--
D|--------2-----4--|--------|-----4--5--------5--4--|-----4-----------4-----|--
A|-----2-----------|--5--2--|-----------------------|--2--------------------|--
E|--0--------------|--------|--0--------------------|-----------------------|--



E|--------------------|--------------------|--------------------|-----------------------
B|--------------------|--------------------|--------------------|-----------------------
G|--3--------3--------|--1--------1--------|--------------------|--------------------3--
D|-----5--------5-----|-----3--------3-----|--3--------3--------|--1--------1--3--5-----
A|--------5--------5--|--------3--------3--|-----5--------5-----|-----3-----------------
E|--------------------|--------------------|--------5--------5--|--------3--------------

E|--------------------|--------------------|--------------------|--------------------|-------------------------
B|--------------------|--------------------|--------------------|--------------------|-------------------------
G|--3--------3--------|--1--------1--------|--------------------|--------------------|-------------------------
D|-----5--------5-----|-----3--------3-----|--3--------3--------|--1--------1--------|--------10-----------10--
A|--------5--------5--|--------3--------3--|-----5--------5-----|-----3--------3-----|-----8---------8---------
E|--------------------|--------------------|--------5--------5--|--------3--------3--|--7---------7------------


             Shadow Madness - Nursing Home  - Lead Guitar Tab

                   Tabbed By :PsoneRPG

(/) Slide Up  (\) Slide Down  (h) Hammer On  (p) Pull Off  (b) Bend (r) Release (v) Vibrato

E|--------------14----------------------|--------------14----------------------|--
B|--12--14--15------15--14--12--14--15--|--12--14--15------15--14--12--14--15--|--
G|--------------------------------------|--------------------------------------|--
D|--------------------------------------|--------------------------------------|--
A|--------------------------------------|--------------------------------------|--
E|--------------------------------------|--------------------------------------|--

E|--12--------------15--|--------------|--15--14--13--17--20--19--17--|--17--15--14------|--
B|------15--14--15------|--15--14--15--|------------------------------|--------------17--|--
G|----------------------|--------------|------------------------------|------------------|--
D|----------------------|--------------|------------------------------|------------------|--
A|----------------------|--------------|------------------------------|------------------|--
E|----------------------|--------------|------------------------------|------------------|--

E|----------14--|--14--15--|--17--15--14------|--------------|-----
B|--15--17------|----------|--------------15--|--12--15--17--|-----
G|--------------|----------|------------------|--------------|-----
D|--------------|----------|------------------|--------------|-----
A|--------------|----------|------------------|--------------|-----
E|--------------|----------|------------------|--------------|-----

E|----------19--15--14------|--------------|----------15--17--15--14--|----------
B|--15--17--------------17--|--13--15--17--|--15--17------------------|--17--15--
G|--------------------------|--------------|--------------------------|----------
D|--------------------------|--------------|--------------------------|----------
A|--------------------------|--------------|--------------------------|----------
E|--------------------------|--------------|--------------------------|----------

E|--------------14----------------------|--------------14----------------------|--
B|--12--14--15------15--14--12--14--15--|--12--14--15------15--14--12--14--15--|--
G|--------------------------------------|--------------------------------------|--
D|--------------------------------------|--------------------------------------|--
A|--------------------------------------|--------------------------------------|--
E|--------------------------------------|--------------------------------------|--

E|--12--------------15--|--------------|--15--14--13--17--20--19--17--|--15--18--17--15--|--
B|------15--14--15------|--15--14--15--|------------------------------|------------------|--
G|----------------------|--------------|------------------------------|------------------|--
D|----------------------|--------------|------------------------------|------------------|--
A|----------------------|--------------|------------------------------|------------------|--
E|----------------------|--------------|------------------------------|------------------|--

E|--13--16--15--13--|------------------|--------------|------15--18--19--15--|--
B|------------------|--15--18--17--15--|--13--15--16--|--18------------------|--
G|------------------|------------------|--------------|----------------------|--
D|------------------|------------------|--------------|----------------------|--
A|------------------|------------------|--------------|----------------------|--
E|------------------|------------------|--------------|----------------------|--

E|--15--16--13--15--16--15--|--13--10--|--10--12--13--15--17--|----------|--
B|--------------------------|----------|----------------------|--17--15--|--
G|--------------------------|----------|----------------------|----------|--
D|--------------------------|----------|----------------------|----------|--
A|--------------------------|----------|----------------------|----------|--
E|--------------------------|----------|----------------------|----------|--

VGJam Tabs Shadow Madness - "Nursing Home"
Tabs database last modified Tuesday, 01-Nov-2016 19:14:53 UTC.
Copyright © 1999 - 2016 VideoGameJam.com. All rights reserved.