VGJam Tabs Silent Hill
Silent Hill
"Silent Hill" - Guitar tab
Platform(s):PlayStation
Composed by:Akira Yamaoka
Soundtrack:Silent Hill Original Soundtracks (track 01)
Tabbed by:Deezer
Last modified:2002-08-20
Print it:Original file (.TXT)
Hear it:MIDI file
#----------------------------------PLEASE NOTE--------------------------------#
#This file is the author's own work and represents their interpretation of the#
#song. You may only use this file for private study, scholarship, or research.#
#-----------------------------------------------------------------------------#

Silent Hill (Sony Playstation)
"Silent Hill"

Originally composed by: Akira Yamaoka
------------------------------------------------------------------------------
Tabbed by: Deezer (deezer@kontek.net)
For http://www.kontek.net/vgjam/
------------------------------------------------------------------------------

Symbols used:
 trem - tremelo pick
    h - hammer-on
   NH - natural harmonic
    / - slide up

Guitar one plays like constant 16th notes. Rather than type all the
numbers, I put "trem..." underneath it.

Standard Tuning - (low to high) EADGBe


Intro:
======
  
G1|--12---------11--------10---------11--------------|
U |-----------------------------------------------10-|
I |--------------------------------------------------|
T |--------------------------------------------------|
A |--------------------------------------------------|
R |--------------------------------------------------|
  |  trem............................................|
  |                                                  |
G2|--------0-----------------0--------1--------0-----|
U |-----------------3--------------------------------|
I |-----2-----2--------2--------2--------2--------2--|
T |--2-----------2--------2--------2--------2--------|
A |--------------------------------------------------|
R |--------------------------------------------------| repeat

Then:

G1|--13--------------15------------------------------
U |--------------------------15----------13---15-----
I |--------------------------------------------------
T |--------------------------------------------------
A |--------------------------------------------------
R |--------------------------------------------------
  |  trem............................................
  |
G2|--------0--------------0--------------1-----0-----
U |--------------3-----------------------------------
I |-----2-----------2--------2--------2-----------2--
T |--3--------3--------3--------3--3--------3--------
A |--------------------------------------------------
R |--------------------------------------------------


G1|-12-----------------------11----------------------
U |--------------------------------------------------
I |--------------------------------------------------
T |--------------------------------------------------
A |--------------------------------------------------
R |--------------------------------------------------
  | trem.............................................
  |
G2|--------0--------0--------------------------------
U |--------------------------4--------4--------4-----
I |-----2-----2--------2--------2--------2-----------
T |--2-----------1--------1--------1--------1-----1--
A |--------------------------------------------------
R |--------------------------------------------------


Part 1:
=======

G2|--------2---------2--2-----------2------------2-----
U |----------------------------------------------------
I |-----0-----0------------------0-----0------0-----0--
T |--2------------2--------2--2------------2-----------
A |----------------------------------------------------
R |----------------------------------------------------
  |
G3|----------------------------------------------------
U |----------------------------------------------------
I |----------------------------------------------------
T |-4/5---------------------------------5--5h7---5--4--
A |----------------------------------------------------
R |----------------------------------------------------


G2|--------2-------2--2-----------2--------2-----2--
U |-------------------------------------------------
I |-----0----0-----------------0-----0--------------
T |--2----------2--------2--2-----------2-----2-----
A |-------------------------------------------------
R |-------------------------------------------------
  |
G3|----------------------12-------------------------
U |----------------12-------------------------------
I |-------------------------------------------------
T |--0----------------------------------------------
A |-------------------------------------------------
R |-------------------------------------------------
                NH...............................


G2|--------2---------2--2-----------2------------2-----
U |----------------------------------------------------
I |-----0-----0------------------0-----0------0-----0--
T |--2------------2--------2--2------------2-----------
A |----------------------------------------------------
R |----------------------------------------------------
  |
G3|----------------------------------------------------
U |----------------------------------------------------
I |----------------------------------------------------
T |-4/5---------------------------------5--5h7---5--4--
A |----------------------------------------------------
R |----------------------------------------------------


G2|--------2-------2--2-----------2--------2-----2--
U |-------------------------------------------------
I |-----0----0-----------------0-----0--------------
T |--2----------2--------2--2-----------2-----2-----
A |-------------------------------------------------
R |-------------------------------------------------
  |
G3|-------------------------------------------------
U |--3----------------------------------------------
I |-------------------------------------------------
T |-------------------------------------------------
A |-------------------------------------------------
R |-------------------------------------------------

Play part 1 twice.
Then:

Part 2a:
========

G1|-12----------------------12-----------------15----
U |--------------------15----------------------------
I |--------------------------------------------------
T |--------------------------------------------------
A |--------------------------------------------------
R |--------------------------------------------------
  | trem.............................................
  |
G2|--------------------------------------------------
U |-----1--3--------1--3-----------0-----------0-----
I |--0--------0-----------------2-----------2--------
T |--------------------------2--------2--------------
A |--------------3--------3--------------0--------0--
R |--------------------------------------------------


G1|-12----------------------12-----------------------
U |--------------------15-------------12-------10----
I |--------------------------------------------------
T |--------------------------------------------------
A |--------------------------------------------------
R |--------------------------------------------------
  | trem.............................................
  |
G2|--------------------------------------------------
U |-----1--3--------1--3-----------0-----------0-----
I |--0--------0-----------------2-----------2--------
T |--------------------------2--------2--------------
A |--------------3--------3--------------0--------0--
R |--------------------------------------------------


G1|-12----------------------12-------------15--12----
U |--------------------15----------------------------
I |--------------------------------------------------
T |--------------------------------------------------
A |--------------------------------------------------
R |--------------------------------------------------
  | trem.............................................
  |
G2|--------------------------------------------------
U |-----1--3--------1--3-----------0-----------0-----
I |--0--------0-----------------2-----------2--------
T |--------------------------2--------2--------------
A |--------------3--------3--------------0--------0--
R |--------------------------------------------------


G1|--------------------------------------------------
U |--12----------------------13----------12----------
I |--------------------------------------------------
T |--------------------------------------------------
A |--------------------------------------------------
R |--------------------------------------------------
  |  trem............................................
  |
G2|--------------------------------------------------
U |--------------------0-----------------------0-----
I |--------0--2-----------2--------0--2--------------
T |-----2-----------2-----------2-----------2-----2--
A |--2-----------2-----------2-----------2-----------
R |--------------------------------------------------


Part 3:
=======

G2|--------------------------------------------------|
U |--------3-----------3-----------3-----------3-----|
I |-----2-----2-----3-----3-----4-----4-----3-----3--|
T |--0-----------0-----------0-----------0-----------|
A |--------------------------------------------------|
R |--------------------------------------------------|
  |                                                  |
G3|--------------------------------------------------|
U |--------------------------------------------------|
I |--2--------2--3--------3--4--------4--3--------3--|
T |--------------------------------------------------|
A |--------------------------------------------------|
R |--------------------------------------------------|  x3


G2|--------------------------------------------------
U |--------3-----------3-----------3-----------3-----
I |-----2-----2-----3-----3-----4-----4-----3-----3--
T |--0-----------0-----------0-----------0-----------
A |--------------------------------------------------
R |--------------------------------------------------
  |
G3|--------------------------------------------------
U |--------------------------------------------------
I |--2--------2--3--------3--4--------4--3-----------
T |--------------------------------------------------
A |-----------------------------------------------0--
R |--------------------------------------------------


Part 4:
=======
(Guitar 2 here is a bit hard to hear, so I transcribed it from the MIDI.)

G1|--13----------------12---13-----------------12----
U |-------------------------------------15-----------
I |--------------------------------------------------
T |--------------------------------------------------
A |--------------------------------------------------
R |--------------------------------------------------
  | trem.............................................
  |
G2|-----------1--------------------------1-----------
U |-----3--------3-----3-----------1-----------1-----
I |--------2--------2-----2-----2-----2-----2--------
T |--3-----------------------2--------------------2--
A |--------------------------------------------------
R |--------------------------------------------------


G1|--------------------12----------------------------
U |--13------------10-------15-----------------10----
I |--------------------------------------------------
T |--------------------------------------------------
A |--------------------------------------------------
R |--------------------------------------------------
  | trem.............................................
  |
G2|--------0-----0-----0-----------------------------
U |-----1--------------------------3-----3-----3-----
I |--2--------2-----2-----2-----2-----2-----2-----2--
T |--------------------------3-----------------------
A |--------------------------------------------------
R |--------------------------------------------------


G1|--13----------------17-------------------15----13-
U |--------------------------------------------------
I |--------------------------------------------------
T |--------------------------------------------------
A |--------------------------------------------------
R |--------------------------------------------------
  | trem.............................................
  |
G2|-----------1--------------------------1-----------
U |-----3--------3-----3-----------1-----------1-----
I |--------2--------2-----2-----2-----2-----2--------
T |--3-----------------------2--------------------2--
A |--------------------------------------------------
R |--------------------------------------------------


G1|--------------------12----------------------------
U |--13----------------------15----------------------
I |--------------------------------------------------
T |--------------------------------------------------
A |--------------------------------------------------
R |--------------------------------------------------
  | trem.............................................
  |
G2|--------0-----0-----0-----------------------------
U |-----1--------------------------3-----3-----3-----
I |--2--------2-----2-----2-----2-----2-----2-----2--
T |--------------------------3-----------------------
A |--------------------------------------------------
R |--------------------------------------------------

Part 4 repeats as guitar 4 comes in:
(Guitar 4 is violin tabbed for guitar; vibrato throughout.)

G4|-------------------------------12-----/-13--------
U |------15----------15------15------------------13--
I |--14----------14------14--------------------------
T |--------------------------------------------------
A |--------------------------------------------------
R |--------------------------------------------------
      ^ A note from previous measure

G4|--13------13---/-15--12----------12------13-------------------
U |------13---------------------13------13------15/17--------15--
I |--------------------------------------------------------------
T |--------------------------------------------------------------
A |--------------------------------------------------------------
R |--------------------------------------------------------------

G4|----------------------------------12-----/-13-------
U |----------15----------15------15-----------------13-
I |------14----------14------14------------------------
T |----------------------------------------------------
A |----------------------------------------------------
R |----------------------------------------------------

G4|-13------13---/-15--12----------12------12---/-13-----------
U |-----13---------------------13------13-------------------15-
I |------------------------------------------------------------
T |------------------------------------------------------------
A |------------------------------------------------------------
R |------------------------------------------------------------

G4|------------13--12------------------13--12-----------------
U |--------------------15----------------------15-------------
I |--------14----------------------14----------------------14-
T |-----------------------------------------------------------
A |-----------------------------------------------------------
R |-----------------------------------------------------------

G4|---------------------------------------------13--12------------
U |-13--------------15/17----------15-------------------15--------
I |-------------14---------------------------14-------------------
T |---------------------------------------------------------------
A |---------------------------------------------------------------
R |---------------------------------------------------------------

G4|------13--12--13--------15----12------------13--------------------
U |--------------------------------------------------------15--------
I |--14--------------------------------------------------------------
T |------------------------------------------------------------------
A |------------------------------------------------------------------
R |------------------------------------------------------------------


Revisions:
 10/16/2001 - First draft.
 8/20/2002 - Fixed mistakes for G3 in Part 1 (some tabbed on wrong string).


VGJam Tabs Silent Hill - "Silent Hill"
Tabs database last modified Tuesday, 01-Nov-2016 19:14:53 UTC.
Copyright © 1999 - 2016 VideoGameJam.com. All rights reserved.