VGJam Tabs Silent Hill
Silent Hill
"Tears of..." - Guitar tab
Platform(s):PlayStation
Composed by:Akira Yamaoka
Soundtrack:Silent Hill Original Soundtracks (track 38)
Tabbed by:Deezer
Last modified:2013-04-15
Print it:Original file (.TXT)
#----------------------------------PLEASE NOTE--------------------------------#
#This file is the author's own work and represents their interpretation of the#
#song. You may only use this file for private study, scholarship, or research.#
#-----------------------------------------------------------------------------#

Silent Hill (Sony PlayStation)
"Tears of..."

Originally composed by: Akira Yamaoka
------------------------------------------------------------------------------
Tabbed by: Deezer (deezer AT videogamejam DOT com)
For http://www.videogamejam.com
------------------------------------------------------------------------------

Note: It's hard to hear all of Guitar 1 in Part B, so that part might not be
100% correct, but it sounds very close.

Standard tuning: (low to high) EADGBe


========
Guitar 1
========


Intro:
======

---------------------|---------------------|
---------------------|---------------------|
--------3------------|--------5------------|
-----5---------------|-----5---------------|
---------------------|---------------------|
--3------------------|--3------------------|

---------------------|---------------------|
---------------------|---------------------|
--------2------------|--------2------------|
-----3---------------|-----4---------------|
---------------------|---------------------|
--3------------------|--3------------------|

Play twice.

Part A:
=======

---------------------|---------------------|
---------------------|---------------------|
--------3------------|--------5------------|
-----5---------------|-----5---------------|
---------------------|---------------------|
--3------------------|--3------------------|

---------------------|---------------------|
---------------------|---------------------|
--------2------------|--------2------------|
-----3---------------|-----4---------------|
---------------------|---------------------|
--3------------------|--3------------------|

Play four times.

Part B:
=======

 (Cm)
--------------------------|--------------------------|
--1--------1-----------1--|-----------1--------------|
-----0-----------0--------|--0-----0--------0--------|
--------1-----1-----1-----|-----1--------1-----1-----|
--------------------------|--------------------------|
--------------------------|--------------------------|

 (Bbadd9)
--------------------------|----------------------------|
-----------1--------------|--1----------------1--------|
--------------------------|----------------------------|
-----3--0-----0--3--0-----|-----3--0-----(3)-----3-----|
--1--------------------1--|-----------1-------------3--|
--------------------------|----------------------------|

 (Eb)
------------------------------|----------------------------|
------------------------------|----------------------------|
-------------3-------0-----3--|--(3)-----0--3--0-----0--2--|
--1-------1-----(1)-----1-----|-------1-----------1--------|
--1--(1)----------------------|----------------------------|
------------------------------|----------------------------|

 (F)
------------------------------|--------------------------|
------------------------------|--------------------------|
-------------2----------------|--2--------------2--------|
--3--(3)--------(3)--3-----3--|-----3--------3-----3-----|
----------3-------------3-----|--------3--0-----------3--|
------------------------------|--------------------------|

Play twice.

Then, play Part A again while Guitars 2 and 3 play Part A2.


=============
Guitars 2 + 3
=============

Intro:
======

G2|-------|-------|-------|-------|-------|-------|-------|-------|
U |-------|-------|-------|-------|-------|-------|-------|-------|
I |-------|-------|-------|-------|-------|-------|-------|-------|
T |-------|-------|-------|-------|-------|-------|-------|-------|
A |-------|-------|-------|-------|-------|-------|-------|-------|
R |-------|-------|-------|-------|-------|-------|-------|-------|
  |
G3|-------|-------|-------|-------|-------|-------|-------|-------|
U |-------|-------|-------|-------|-------|-------|-------|-------|
I |-------|-------|-------|-------|-------|-------|-------|-------|
T |-------|-------|-------|-------|-------|-------|-------|-------|
A |-------|-------|-------|-------|-------|-------|-------|-------|
R |-------|-------|-------|-------|-------|-------|-------|-------|


Part A:
=======

G2|-17-18-17-15-------------------|------------------------|
U |-------------15-------------18-|----------------16------|
I |-----------------------15------|---------------------14-|
T |-------------------------------|------------------------|
A |-------------------------------|------------------------|
R |-------------------------------|------------------------|
  |
G3|-------------------------------|------------------------|
U |-------------------------------|------------------------|
I |-------------------------------|------------------------|
T |-------------------------------|------------------------|
A |-------------------------------|------------------------|
R |-------------------------------|------------------------|


G2|-----------------------|--------------------------|
U |-----------------------|--------------------------|
I |---------------12--14--|--------15----14----12----|
T |-----------------------|--------------------------|
A |-----------------------|--------------------------|
R |-----------------------|--------------------------|
  |
G3|-----------------------|--------------------------|
U |-----------------------|--------------------------|
I |-----------------------|--------------------------|
T |-----------------------|--------------------------|
A |-----------------------|--------------------------|
R |-----------------------|--------------------------|


G2|-17-18-17-15-------------------|------------------------|
U |-------------15-------------18-|----------------16------|
I |-----------------------15------|---------------------14-|
T |-------------------------------|------------------------|
A |-------------------------------|------------------------|
R |-------------------------------|------------------------|
  |
G3|-------------------------------|------------------------|
U |-------------------------------|------------------------|
I |-------------------------------|------------------------|
T |-------------------------------|------------------------|
A |-------------------------------|------------------------|
R |-------------------------------|------------------------|


G2|---------------------|------------------------|
U |---------------------|------------15----------|
I |---------------15----|--17--------------17----|
T |---------------------|------------------------|
A |---------------------|------------------------|
R |---------------------|------------------------|
  |
G3|---------------------|------------------------|
U |---------------------|------------------------|
I |---------------------|------------------------|
T |---------------------|------------------------|
A |---------------------|------------------------|
R |---------------------|------------------------|


G2|--17-18-17-15-------------------|------------------------|
U |--------------15-------------18-|----------------16------|
I |------------------------15------|---------------------14-|
T |--------------------------------|------------------------|
A |--------------------------------|------------------------|
R |--------------------------------|------------------------|
  |
G3|--------------------------------|------------------------|
U |------------------------15------|--13------------15------|
I |--12----------------------------|------------------------|
T |--------------------------------|------------------------|
A |--------------------------------|------------------------|
R |--------------------------------|------------------------|


G2|-----------------------|--------------------------|
U |-----------------------|--------------------------|
I |---------------12--14--|----------14--15----17----|
T |-----------------------|--------------------------|
A |-----------------------|--------------------------|
R |-----------------------|--------------------------|
  |
G3|-----------------------|--------------------------|
U |-----------------------|--13----------15----13----|
I |--14-----------15------|--------------------------|
T |-----------------------|--------------------------|
A |-----------------------|--------------------------|
R |-----------------------|--------------------------|


G2|--17-18-17-15-------------------|------------------------|
U |--------------15-------------18-|----------------16------|
I |------------------------15------|---------------------14-|
T |--------------------------------|------------------------|
A |--------------------------------|------------------------|
R |--------------------------------|------------------------|
  |
G3|--------------------------------|------------------------|
U |------------------------15------|--13------------15------|
I |--12----------------------------|------------------------|
T |--------------------------------|------------------------|
A |--------------------------------|------------------------|
R |--------------------------------|------------------------|


G2|----------------------------|------------------------------|
U |----------------------------|------------------15----------|
I |------------------------17--|--------------17--------17----|
T |----------------------------|------------------------------|
A |----------------------------|------------------------------|
R |----------------------------|------------------------------|
  |
G3|----------------------------|------------------------------|
U |----------------------------|--13--------------15----13----|
I |--14----------------15------|------------------------------|
T |----------------------------|------------------------------|
A |----------------------------|------------------------------|
R |----------------------------|------------------------------|


Part B:
=======

G2|--------------------------------|-----------------------|
U |--------------------------------|-----------------------|
U |--------------------------------|-----------------------|
T |--------------------------------|-----------------------|
A |--------------------------------|-----------------------|
R |--------------------------------|-----------------------|
  |
G3|--17-18-17-15-------------------|-----------------------|
U |--------------15----16----18----|-----------------------|
I |--------------------------------|--15-------------------|
T |--------------------------------|-------------------15--|
A |--------------------------------|-----------------------|
R |--------------------------------|-----------------------|


G2|--------------------------|------------------------|
U |--------------------------|------------------------|
I |--------------------------|------------------------|
T |--------------------------|------------------------|
A |--------------------------|------------------------|
R |--------------------------|------------------------|
  |
G3|--------------------------|------------------------|
U |--15-------------------15-|------------------------|
I |--------------------17----|--17--------15----17----|
T |--------------------------|------------------------|
A |--------------------------|------------------------|
R |--------------------------|------------------------|


G2|--------------------------------|-----------------------|
U |--------------------------------|-----------------------|
U |--------------------------------|-----------------------|
T |--------------------------------|-----------------------|
A |--------------------------------|-----------------------|
R |--------------------------------|-----------------------|
  |
G3|--17-18-17-15-------------------|-----------------------|
U |--------------15----16----18----|-----------------------|
I |--------------------------------|--15-------------------|
T |--------------------------------|-------------------15--|
A |--------------------------------|-----------------------|
R |--------------------------------|-----------------------|


G2|--------------------------|------------------------|
U |--------------------------|------------------------|
I |--------------------------|------------------------|
T |--------------------------|------------------------|
A |--------------------------|------------------------|
R |--------------------------|------------------------|
  |
G3|--------------------------|------------------------|
U |--15-------------------15-|------------15----------|
I |--------------------17----|--17--------------17----|
T |--------------------------|------------------------|
A |--------------------------|------------------------|
R |--------------------------|------------------------|

Play twice.

Part A2:
========

G2|--17-18-17-15-------------------|------------------------|
U |--------------15-------------18-|----------------16------|
I |------------------------15------|---------------------14-|
T |--------------------------------|------------------------|
A |--------------------------------|------------------------|
R |--------------------------------|------------------------|
  |
G3|--------------------------------|------------------------|
U |--------------------------------|------------------------|
I |--------------------------------|------------------------|
T |--------------------------------|------------------------|
A |--------------------------------|------------------------|
R |--------------------------------|------------------------|


G2|------------------------|--------------------------|
U |------------------------|--------------------------|
I |----------------12--15--|------------14------15----|
T |------------------------|--------------------------|
A |------------------------|--------------------------|
R |------------------------|--------------------------|
  |
G3|------------------------|--------------------------|
U |------------------------|--------------------------|
I |------------------------|--------------------------|
T |------------------------|--------------------------|
A |------------------------|--------------------------|
R |------------------------|--------------------------|


G2|--17-18-17-15-------------------|------------------------|
U |--------------15-------------18-|----------------16------|
I |------------------------15------|---------------------14-|
T |--------------------------------|------------------------|
A |--------------------------------|------------------------|
R |--------------------------------|------------------------|
  |
G3|--------------------------------|------------------------|
U |--------------------------------|------------------------|
I |--------------------------------|------------------------|
T |--------------------------------|------------------------|
A |--------------------------------|------------------------|
R |--------------------------------|------------------------|


G2|------------------------|--------------------------|
U |------------------------|------------15------------|
I |----------------15--17--|--------------------17----|
T |------------------------|--------------------------|
A |------------------------|--------------------------|
R |------------------------|--------------------------|
  |
G3|------------------------|--------------------------|
U |------------------------|--------------------------|
I |------------------------|--------------------------|
T |------------------------|--------------------------|
A |------------------------|--------------------------|
R |------------------------|--------------------------|


G2|--17-18-17-15---------------------|-------------------------|
U |--------------15---------------18-|----------------16-------|
I |--------------------------15------|----------------------14-|
T |----------------------------------|-------------------------|
A |----------------------------------|-------------------------|
R |----------------------------------|-------------------------|
  |
G3|----------------------------------|-------------------------|
U |--------------15----16----18------|-------------------------|
I |----------------------------------|--15---------------------|
T |----------------------------------|-------------------15----|
A |----------------------------------|-------------------------|
R |----------------------------------|-------------------------|


G2|--------------------------|--------------------------|
U |--------------------------|--------------------------|
I |----------------12--15----|------------14------15----|
T |--------------------------|--------------------------|
A |--------------------------|--------------------------|
R |--------------------------|--------------------------|
  |
G3|--------------------------|--------------------------|
U |--15-------------------15-|--------------------------|
I |--------------------17----|--17------------15--17----|
T |--------------------------|--------------------------|
A |--------------------------|--------------------------|
R |--------------------------|--------------------------|


G2|--17-18-17-15---------------------|-------------------------|
U |--------------15---------------18-|----------------16-------|
I |--------------------------15------|----------------------14-|
T |----------------------------------|-------------------------|
A |----------------------------------|-------------------------|
R |----------------------------------|-------------------------|
  |
G3|----------------------------------|-------------------------|
U |--------------15----16----18------|-------------------------|
I |----------------------------------|--15---------------------|
T |----------------------------------|-------------------15----|
A |----------------------------------|-------------------------|
R |----------------------------------|-------------------------|

  
G2|---------------------------|--------------------------|
U |---------------------------|--------------------15----|
I |----------------15--17-----|----------15--17----------|
T |---------------------------|--------------------------|
A |---------------------------|--------------------------|
R |---------------------------|--------------------------|
  |
G3|--------------------------|---------------------------|
U |--15-------------------15-|---------------15----------|
I |--------------------17----|--17-----------------17----|
T |--------------------------|---------------------------|
A |--------------------------|---------------------------|
R |--------------------------|---------------------------|


G2|--17-18-17-15---------------------|-------------------------|
U |--------------15---------------18-|----------------16-------|
I |--------------------------15------|----------------------14-|
T |----------------------------------|-------------------------|
A |----------------------------------|-------------------------|
R |----------------------------------|-------------------------|
  |
G3|----------------------------------|-------------------------|
U |--------------15----16----18------|-------------------------|
I |----------------------------------|--15---------------------|
T |----------------------------------|-------------------15----|
A |----------------------------------|-------------------------|
R |----------------------------------|-------------------------|


G2|--------------------------|--------------------------|
U |--------------------------|--------------------------|
I |----------------12--15----|------------14------15----|
T |--------------------------|--------------------------|
A |--------------------------|--------------------------|
R |--------------------------|--------------------------|
  |
G3|--------------------------|--------------------------|
U |--15-------------------15-|--------------------------|
I |--------------------17----|--17------------15--17----|
T |--------------------------|--------------------------|
A |--------------------------|--------------------------|
R |--------------------------|--------------------------|


G2|--17-18-17-15---------------------|-------------------------|
U |--------------15---------------18-|----------------16-------|
I |--------------------------15------|----------------------14-|
T |----------------------------------|-------------------------|
A |----------------------------------|-------------------------|
R |----------------------------------|-------------------------|
  |
G3|----------------------------------|-------------------------|
U |--------------15----16----18------|-------------------------|
I |----------------------------------|--15---------------------|
T |----------------------------------|-------------------15----|
A |----------------------------------|-------------------------|
R |----------------------------------|-------------------------|


G2|--------------------------|--------------------------|
U |--------------------------|------------15------------|
I |----------------15--17----|--------------------17----|
T |--------------------------|--------------------------|
A |--------------------------|--------------------------|
R |--------------------------|--------------------------|
  |
G3|--------------------------|--------------------------|
U |--15-------------------15-|----------------15--------|
I |--------------------17----|--17----------------17----|
T |--------------------------|--------------------------|
A |--------------------------|--------------------------|
R |--------------------------|--------------------------| [fades out]


Revision history:
 04/15/2013 - Added other guitars and fixed up the formatting.
 01/29/2001 - First draft.

VGJam Tabs Silent Hill - "Tears of..."
Tabs database last modified Tuesday, 01-Nov-2016 19:14:53 UTC.
Copyright © 1999 - 2016 VideoGameJam.com. All rights reserved.