VGJam Tabs Silent Hill
Silent Hill
"Killing Time" - Guitar tab
Platform(s):PlayStation
Composed by:Akira Yamaoka
Soundtrack:Silent Hill Original Soundtracks (track 39)
Tabbed by:Deezer
Last modified:2005-04-02
Print it:Original file (.TXT)
#----------------------------------PLEASE NOTE--------------------------------#
#This file is the author's own work and represents their interpretation of the#
#song. You may only use this file for private study, scholarship, or research.#
#-----------------------------------------------------------------------------#

Silent Hill (Sony Playstation)
"Killing Time"

Originally composed by: Akira Yamaoka
------------------------------------------------------------------------------
Tabbed by: Deezer (deezer AT videogamejam DOT com)
For http://www.videogamejam.com
------------------------------------------------------------------------------

Use tremelo effects for guitars 1 and 2.

Second guitar is Dropped D tuning: (low to high) DADGBe


Guitar 1: background riff:
==========================
  
|-------------3----6----5----3----5---------
|--------3-----------------------------3----
|------7------------------------------------
|-------------------------------------------
|-------------------------------------------
|-------------------------------------------
 
 -------------3----6----5----3----5---------|
 --------3-----------------------------6----|
 ------7------------------------------------|
 -------------------------------------------|
 -------------------------------------------|
 -------------------------------------------| repeat
 
        ^ Always let the two D notes ring together.
  

Intro:
======
Guitar 2 enters:
(Background guitar riff repeats throughout.)

e|-------------------------------------------|
B|-------------------------------------------|
G|-------------------------------------------|
D|-------------------------------------------|
A|-------------------------------------------|
D|--0----------------------------------------| x2

Part 1:
=======
Guitar 2:
(Background guitar riff repeats throughout.)

e|-------------------------------------------|
B|-------------------------------------------|
G|-------------------------------2-----------|
D|--------0-------------------0--------------|
A|-------------------------------------------|
D|--0----------------------------------------| x5

e|-------------------------------------------
B|-------------------------------------------
G|-------------------------------2-----------
D|--------0----------------------------------
A|-------------------------------------------
D|--0-------------------------0--------------

Part 2:
=======
Guitar 3 enters:
(Background guitar riff repeats throughout.)

 e|---------------------------------------------------|
 B|---------------------------------------------------|
 G|----------------------------------------2----------|
 D|------------------------------------0--------------|
 A|---------------------------------------------------|
 D|--0------------------------------------------------|
  |                                                   |
G3|--17-17-17-17-16-16-16-16-15-15-15-15-14-14-14-14--|
U |---------------------------------------------------|
I |---------------------------------------------------|
T |---------------------------------------------------|
A |---------------------------------------------------|
R |---------------------------------------------------| x4


Part 3:
=======
Guitar 2 only.

e|------------------------------------------- 
B|------------------------------------------- 
G|------------------------------------------- 
D|----4----------------4--------------------- 
A|--5----------------5----------------------- 
D|------------------------------------------- 

  -------------------------------------------|
  ----------------------------------3--------|
  -------------------------------------------|
  ----4----------------4---------------------|
  --5----------------5-----------------------|
  -------------------------------------------| x2

e|------------------|
B|------------3-----|
G|------------------|
D|----4-------------|
A|--5---------------|
D|------------------| x8


Part 4:
=======
Background guitar riff repeats behind guitar 2 here.

e|-------------------------------------------|
B|-------------------------------------------|
G|-------------------------------2-----------|
D|--------0-------------------0--------------|
A|-------------------------------------------|
D|--0----------------------------------------| x3

e|-------------------------------------------
B|-------------------------------------------
G|-------------------------------2-----------
D|--------0----------------------------------
A|-------------------------------------------
D|--0-------------------------0--------------

e|-------------------------------------------|
B|-------------------------------------------|
G|-------------------------------2-----------|
D|--------0-------------------0--------------|
A|-------------------------------------------|
D|--0----------------------------------------| x4


Outro:
======
Guitars 1 and 2.

 |-------------3----6----5----3----5---------
 |--------3-----------------------------3----
 |------7------------------------------------
 |-------------------------------------------
 |-------------------------------------------
 |-------------------------------------------
 |
e|-------------------------------------------
B|-------------------------------------------
G|-------------------------------------------
D|-------------------------------------------
A|-------------------------------------------
D|--0----------------------------------------

 |-------------3----6----5-------------------
 |--------3-------------------3--------------
 |------7------------------------------------
 |-------------------------------------------
 |-------------------------------------------
 |-------------------------------------------
 |
e|-------------------------------------------
B|-------------------------------------------
G|-------------------------------------------
D|-------------------------------------------
A|-------------------------------------------
D|--0----------------------------------------


Revision history:
 10/10/2001 - First draft.
 04/02/2005 - Expanded the background riff.
              Added minor clarifications to Parts 1-4.
VGJam Tabs Silent Hill - "Killing Time"
Tabs database last modified Tuesday, 01-Nov-2016 19:14:53 UTC.
Copyright © 1999 - 2016 VideoGameJam.com. All rights reserved.