VGJam Tabs Silent Hill
Silent Hill
"Silent Hill (Otherside)" - Guitar tab
Platform(s):PlayStation
Composed by:Akira Yamaoka
Soundtrack:Silent Hill Original Soundtracks (track 42)
Tabbed by:Bugenhagen
Last modified:2005-02-20
Print it:Original file (.TXT)
Hear it:MIDI file
#----------------------------------PLEASE NOTE--------------------------------#
#This file is the author's own work and represents their interpretation of the#
#song. You may only use this file for private study, scholarship, or research.#
#-----------------------------------------------------------------------------#
#-- File created with Instab - http://www.pconline.com/~smcarey/instab.html --#
#-----------------------------------------------------------------------------#

Author/Artist: Akira Yamaoka
Title: Silent Hill (Otherside)
Game: Slient Hill (PSX)
Transcribed by: Joakim "Bugenhagen" Svensson
Email: mertula@hotmail.com

Use a hollow sound, a little bit of dist and also a little bit of trem,
And listen on the midi!

|----------------------------------------
|------------1-1-----------------1-1-----
|------1----1--------------1----1--------
|----3------------3------3------------3--
|--3-------------------3-----------------
|----------------------------------------continue to the next


--------------------------------------|
--------------------------------------|
-----------------1-0-----0---01-1-----| x2
---3-2-1---1-3---------3-----------3--|
--------------------------------------|
--------------------------------------|


|---------------------|
|--3-4--1-------1-----|
|----------1----------| x4
|------------------3--|
|---------------------|
|---------------------|

VGJam Tabs Silent Hill - "Silent Hill (Otherside)"
Tabs database last modified Tuesday, 01-Nov-2016 19:14:53 UTC.
Copyright © 1999 - 2016 VideoGameJam.com. All rights reserved.