VGJam Tabs Shin Megami Tensei: Digital Devil Saga
Shin Megami Tensei: Digital Devil Saga
"Hunting" - Guitar tab
Platform(s):PlayStation 2
Composed by:Shoji Meguro
Tabbed by:redhonour
Last modified:2009-09-07
Date added:2009-12-07
Print it:Original file (.TXT)
Hear it:MIDI file
PS2, SMT: Digital Devil Saga
"Hunting"
Original Composer: Shoji Meguro



This is the primary battle theme for DDS.

Standard Tunning: EADGBe

Basic structure is:


Intro
Part 1 + Part 2
Part 1 + Part 3
Part 1 + Part 4
Part 1 + Part 5
Solo 1
Part 1 x2
Part 1 + Part 2
Part 1 + Part 3
Part 1 + Part 4
Part 1 + Part 5


Intro

e||--------------------------------|
B||--------------------------------|
G||--------------------------------|
D||--2-2-2-2----2-2-2-2----2-2-2---|
A||--2-2-2-2----2-2-2-2----2-2-2---|
E||--0-0-0-0----0-0-0-0----0-0-0---|


Part 1

|-----------------------|-----------------------|------------------------|-----------------------|
|-----------------------|-----------------------|------------------------|-----------------------|
|-----------------------|-----------------------|------------------------|-----------------------|
|--2----x--2----x--2----|--2----x--2----x--2----|--5----x--5----x--5--7--|--7----x--7----x--7----|
|--2----x--2----x--2----|--2----x--2----x--2----|--5----x--5----x--5--7--|--7----x--7----x--7----|
|--0----x--0----x--0----|--0----x--0----x--0----|--3----x--3----x--3--5--|--5----x--5----x--5----|


Guitar 2

Part 2
|-----------------------|----------------------|-------------------------|-------------------|
|-----------------------|----------------------|-------------------------|-------------------|
|--9^----9------7---9---|----------------------|-----------6^------------|-------------------|
|-----------------------|--7-------------------|-------------------------|-------------------|
|-----------------------|------------------10--|--9---10-----------------|--7----------------|
|-----------------------|----------------------|-------------------------|-------------------|

Part 3
|-----------------------|----------------------|-------------------------|-------------------|
|-----------------------|----------------------|-------------------------|-------------------|
|--9^----9------7---9---|----------------------|-------------------------|-------------------|
|-----------------------|--7-------------------|-------------------------|-------------------|
|-----------------------|------------------10--|--9---10---7-------------|----------9--------|
|-----------------------|----------------------|-------------------------|-------------------|

Part 4
---------------------------|----------------------------|------------------------------|-------------------|
---------------------------|--5-----3--5--7h--8p--7-----|------------------------------|-------------------|
---------------7-----6--7--|-----6-------------------7--|------------------------------|-------------------|
--9------7--9-----9--------|----------------------------|--9-------------7-------------|-------------------|
-----10--------------------|----------------------------|-----------10------10h-12p-10-|--9----------------|
---------------------------|----------------------------|------------------------------|-------------------|

Part 5
---------------------------|----------------------------|------------------------------|----------------------------|
---------------------------|--5-----3--5--7h--8p--7-----|------------------------------|----------------------------|
---------------7-----6--7--|-----6-------------------7/-|--16~-----------------12------|--14---12--12h-14p-12-11----|
--9------7--9-----9--------|----------------------------|------------------------------|----------------------------|
-----10--------------------|----------------------------|------------------------------|----------------------------|
---------------------------|----------------------------|------------------------------|----------------------------|



Solo 1

---------------------|--------------------------------|----------------------------|------------------------|-------------------------|
--10^----------------|--12/--10---------------8h-10-8-|------------10--------------|------------------------|-------------------------|
---------------------|--------------------------------|--11---12--------11---------|------------------------|--11-----------11---12---|
---------------------|--------------------------------|----------------------12----|-------------------12---|-------------------------|
---------------------|--------------------------------|----------------------------|--------------14--------|-------------------------|
---------------------|--------------------------------|----------------------------|------------------------|-------------------------|

-------------------------|--14---15---14----------------|---------------------------|---------------------|
--12-----------12---15---|----------------15------------|---------------------------|---------------------|
-------------------------|---------------------16---16--|--14----16------12/---14---|--11~----------------|
-------------------------|------------------------------|---------------------------|---------------------|
-------------------------|------------------------------|---------------------------|---------------------|
-------------------------|------------------------------|---------------------------|---------------------|



Solo 2

|--17p--14--14----------------------|---------------------------|-----------------------|--10--12-----------12---14---|
|---------------15--15------15------|--15/--12------------------|--12---------------12--|-----------------------------|
|-----------------------16------16--|-----------------11---12---|-----------------------|-----------------------------|
|-----------------------------------|---------------------------|-----------------------|-----------------------------|
|-----------------------------------|---------------------------|-----------------------|-----------------------------|
|-----------------------------------|---------------------------|-----------------------|-----------------------------|

--15p--14--15p--14--------------------|----------------------------|---------------------------------|--10---12---15--14----||
--------------------15/--12--12h--14--|--15--14----12----12---12---|----------------------------12---|----------------------||
--------------------------------------|----------------------------|--14b------14p-12-14b------------|----------------------||
--------------------------------------|----------------------------|---------------------------------|----------------------||
--------------------------------------|----------------------------|---------------------------------|----------------------||
--------------------------------------|----------------------------|---------------------------------|----------------------||



Legend:
/ = slide
h = hammer on
p = pull-off
x = muted string
~ = vibrato
^ = bend up
VGJam Tabs Shin Megami Tensei: Digital Devil Saga - "Hunting"
Tabs database last modified Tuesday, 01-Nov-2016 19:14:53 UTC.
Copyright © 1999 - 2016 VideoGameJam.com. All rights reserved.