VGJam Tabs Star Ocean: The Second Story
Star Ocean: The Second Story
"The Venerable Forest" - Guitar tab
Platform(s):PlayStation
Composed by:Motoi Sakuraba
Soundtrack:Star Ocean: The Second Story Original Soundtrack (track D1-05)
Tabbed by:aword2b
Last modified:2002-02-16
Print it:Original file (.TXT)
Hear it:MIDI file
Star Ocean: The Second Story (Playstation)
The Venerable Forest (aka The Shingo Forest Theme)
Disc One, Track 5 on OST
Composer: Motoi Sakuraba
Tabed by: Brian (aword2b@hotmail.com)


Lead Flute (Vibrato like mad and throw on distortion for kicks)

e----------------------------------------||
B----8--7------7--------8--7---7--10-8---||*
G--9------9-7----9----9------9-----------|| Repeat x1
D----------------------------------------||*
A----------------------------------------||
E----------------------------------------||

e----------------------------------------||
B-------10-------------------10----------||*
G--7--9----9--7--9------7--9----9--7--9--|| Repeat x1
D-------------------9--------------------||*
A----------------------------------------||
E----------------------------------------||

VGJam Tabs Star Ocean: The Second Story - "The Venerable Forest"
Tabs database last modified Tuesday, 01-Nov-2016 19:14:53 UTC.
Copyright © 1999 - 2016 VideoGameJam.com. All rights reserved.