VGJam Tabs Star Ocean: The Second Story
Star Ocean: The Second Story
"The Incarnation of Devil" - Guitar tab
Platform(s):PlayStation
Composed by:Motoi Sakuraba
Soundtrack:Star Ocean: The Second Story Original Soundtrack (track D2-26)
Tabbed by:Smeg
Last modified:2003-02-18
Print it:Original file (.TXT)
Hear it:MIDI file
Star Ocean: The Second Story (PSX) - The Incarnation of Devil

OST disc 2, track 26

Composed by Motoi Sakuraba

Tabbed by Smeg (smeg@fefea.org)


Chord accompaniment noted above each measure.

     F#m           Emadd2     Am            Gm
  e|-------------|----------|-------------|-------|
  b|-------------|---5------|-------5-----|-------|
  g|-------6-4---|-----7-6--|-5-4-5---7-5-|-3-----|
  d|-6-7-4-----7-|-6--------|-------------|----5--|
  a|-------------|----------|-------------|-------|
  E|-------------|----------|-------------|-------|


     F#m           Emadd2     Am            Cm
  e|-------------|----------|-------------|---------|
  b|-------------|---5------|-------5-----|-4-------|
  g|-------6-4---|-----7-6--|-5-4-5---7-5-|---7-5---|
  d|-6-7-4-----7-|-6--------|-------------|-------5-|
  a|-------------|----------|-------------|---------|
  E|-------------|----------|-------------|---------|


 Two guitars here:

     G#5 A#5     C5         G#5    A#5     NC (G)
  e|-----------|----------|--------------|-3-----|
  b|---------4-|-6-4------|----------4-6-|-------|
  g|-5---5-7---|-----7-5--|-5p4h5--7-----|-------|
  d|-----------|----------|--------------|-------|
  a|-----------|----------|--------------|-------|
  E|-----------|----------|--------------|-------|
   |           |          |              |       |
   |           |          |              |       |
  e|-----------|----------|--------------|-------|
  b|-----------|----------|--------------|-------|
  g|---------5-|-7-5------|----------5-7-|-5--4--|
  d|-6---6-8---|-----8-5--|-6-8-8--8-----|-------|
  a|-----------|----------|--------------|-------|
  E|-----------|----------|--------------|-------|


     G#5 A#5     C5         G#5    A#5     C5
  e|-----------|----------|--------------|-------|
  b|---------4-|-6-4------|----------4-6-|-6--5--|
  g|-5---5-7---|-----7-5--|-5p4h5--7-----|-------|
  d|-----------|----------|--------------|-------|
  a|-----------|----------|--------------|-------|
  E|-----------|----------|--------------|-------|
   |           |          |              |       |
   |           |          |              |       |
  e|-----------|----------|--------------|-------|
  b|-----------|----------|--------------|-8-----|
  g|---------5-|-7-5------|----------5-7-|-------|
  d|-6---6-8---|-----8-5--|-6-8-8--8-----|-------|
  a|-----------|----------|--------------|-------|
  E|-----------|----------|--------------|-------|


     F#m           Emadd2     Am            Gm
  e|-------------|----------|-------------|-------|
  b|-------------|---5------|-------5-----|-------|
  g|-------6-4---|-----7-6--|-5-4-5---7-5-|-3-----|
  d|-6-7-4-----7-|-6--------|-------------|----5--|
  a|-------------|----------|-------------|-------|
  E|-------------|----------|-------------|-------|


     F#m           Emadd2     Am            Cm
  e|-------------|----------|-------------|---------|
  b|-------------|---5------|-------5-----|-4-------|
  g|-------6-4---|-----7-6--|-5-4-5---7-5-|---7-5---|
  d|-6-7-4-----7-|-6--------|-------------|-------5-|
  a|-------------|----------|-------------|---------|
  E|-------------|----------|-------------|---------|


 Two guitars again:

     G#5 A#5     C5         G#5    A#5     NC (G)
  e|-----------|----------|--------------|-3-----|
  b|---------4-|-6-4------|----------4-6-|-------|
  g|-5---5-7---|-----7-5--|-5p4h5--7-----|-------|
  d|-----------|----------|--------------|-------|
  a|-----------|----------|--------------|-------|
  E|-----------|----------|--------------|-------|
   |           |          |              |       |
   |           |          |              |       | 
  e|-----------|----------|--------------|-------|
  b|-----------|----------|--------------|-------|
  g|---------5-|-7-5------|----------5-7-|-5--4--|
  d|-6---6-8---|-----8-5--|-6-8-8--8-----|-------|
  a|-----------|----------|--------------|-------|
  E|-----------|----------|--------------|-------|


    G#5 A#5     C5         G#5    A#5     C5
  e|-----------|----------|--------------|-------|
  b|---------4-|-6-4------|----------4-6-|-6--5--|
  g|-5---5-7---|-----7-5--|-5p4h5--7-----|-------|
  d|-----------|----------|--------------|-------|
  a|-----------|----------|--------------|-------|
  E|-----------|----------|--------------|-------|
   |           |          |              |       |
   |           |          |              |       |
  e|-----------|----------|--------------|-------|
  b|-----------|----------|--------------|-8-----|
  g|---------5-|-7-5------|----------5-7-|-------|
  d|-6---6-8---|-----8-5--|-6-8-8--8-----|-------|
  a|-----------|----------|--------------|-------|
  E|-----------|----------|--------------|-------|


     D5
  e|------------------|------------------|
  b|-5----------------|-5----------------|
  g|---7-5----7-5-----|---7-5----7-5-----|
  d|-------7------7---|-------7------7---|
  a|----------------8-|----------------8-|
  E|------------------|------------------|


  e|-----------------------|-------------------------|
  b|-5-----8-6-5-----------|-5-----6-5---------------|
  g|---7-5-------7-7-5-----|---7-5-----7-5-----------|
  d|-------------------7---|---------------7-5-------|
  a|---------------------8-|-------------------8-7-8-|
  E|-----------------------|-------------------------|


     D5                 C
  e|------------------|------------------|
  b|-5----------------|-5----------------|
  g|---7-5----7-5-----|---7-5----7-5-----|
  d|-------7------7---|-------7------7---|
  a|----------------8-|----------------8-|
  E|------------------|------------------|


           NC (D)            Em
  e|-----------------------|-------5-----------------|
  b|-5-----8-6-5-----------|-5-------8-6-5-----------|
  g|---7-5-------7-7-5-----|---7-5---------7-5-------|
  d|-------------------7---|-------------------7-5---|
  a|---------------------8-|-----------------------8-|
  E|-----------------------|-------------------------|


     Am       Esus2
  e|--------|--------|---------|-----|---------|-----|-10--|-----|
  b|--------|--------|-10------|-----|-----10--|-12--|-----|-13--|
  g|--------|--------|-----12--|-11--|-10------|-----|-----|-----|
  d|-7--7-7-|-9--9-9-|---------|-----|---------|-----|-----|-----|
  a|-7--5-4-|-7--7-6-|---------|-----|---------|-----|-----|-----|
  E|--------|--------|---------|-----|---------|-----|-----|-----|


  e|--------|-8p7---------------|-10\--|---|
  b|-8--10--|-----10-8-10-8---8-|------|---|
  g|--------|---------------9---|------|---|
  d|--------|-------------------|------|---|
  a|--------|-------------------|------|---|
  E|--------|-------------------|------|---|


  e|--------|-8p7---------------|-10\--|---|
  b|-8--10--|-----10-8-10-8---8-|------|---|
  g|--------|---------------9---|------|---|
  d|--------|-------------------|------|---|
  a|--------|-------------------|------|---|
  E|--------|-------------------|------|---|

 Repeat from the top.

VGJam Tabs Star Ocean: The Second Story - "The Incarnation of Devil"
Tabs database last modified Tuesday, 01-Nov-2016 19:14:53 UTC.
Copyright © 1999 - 2016 VideoGameJam.com. All rights reserved.