VGJam Tabs Street Fighter Alpha
Street Fighter Alpha
"Adon's theme" - Guitar tab
Platform(s):PlayStation
Tabbed by:Wesley Stafford
Last modified:2002-02-21
Print it:Original file (.TXT)
Hear it:MIDI file
Adon's Stage Music (From the Street Fighter Alpha series)
Transribed by Wesley Stafford (wespaul2k@mail.com)
A soundfile of this can be heard at - http://www.sinep.org/wes/tunes/wes-adonstage-finalmix.mp3


Here are the riffs, repeat as needed. The last two riffs are played after 
the first one
in the interlude.

E-|------------------------------------------|
B-|------------------------------------------|
G-|--------------------2---------------------|
D-|--------------4-----0---------------------|
A-|--------------2--------4--2-----2~--------|
E-|--4--4--4--4-----4-----------4------2--3--|


E-|-----------------------------------------------|
B-|-----------------------------------------------|
G-|-----------------------------------------------|
D-|--------6--------6--------6-----------8--9--8--|
A-|--------6--------6--------6-----------8--9--8--|
E-|--4--4-----4--4-----4--4-----4--4--4--6--7--6--|


E-|-----------------------------------------------|
B-|-----------------------------------------------|
G-|-----------------------------------------------|
D-|--------2--------2--------2-----------6--8--9--|
A-|--------2--------2--------2-----------6--8--9--|
E-|--0--0-----0--0-----0--0-----0--0--0--4--6--7--|


E-|--------------------------------------|
B-|--------------------------------------|
G-|--------------------------------------|
D-|--------------2-----------------------|
A-|--------------2-----2--0--------------|
E-|--0--0--0--0-----0--------4--2--4--0--|


E-|-------------------------------------------|
B-|-------------------------------------------|
G-|-------------------------------------------|
D-|--------------2----------------------------|
A-|--------------2-----2--0-------------5p4~--|
E-|--0--0--0--0-----0--------4--2--4p2--------|


Now here are the leads. The leads are in order, but are harmonized, so they 
will be
tab-jointed together to avoid confusion.

E-|-----------|-----------|
B-|--19b21~~--|--17b19~~--|
G-|-----------|-----------|
D-|-----------|-----------|
A-|-----------|-----------|
E-|-----------|-----------|


E-|---------------|--------------------------14~~--|
B-|--17--16-------|--------------------------------|
G-|----------13~--|--13--16--15--13--15--16--------|
D-|---------------|--------------------------------|
A-|---------------|--------------------------------|
E-|---------------|--------------------------------|
  |               |                                |
E-|---------------|--------------------------------|
B-|---------------|--------------------7~~---------|
G-|--9--8---------|--------------------------------|
D-|--------6~~----|--6--9--8--6--8--9--------------|
A-|---------------|--------------------------------|
E-|---------------|--------------------------------|


E-|------------14~--|-------------------------------|
B-|-----------------|--17--16-----------------------|
G-|--13~--16~-------|----------13--16--15-----------|
D-|-----------------|----------------------16--13~--|
A-|-----------------|-------------------------------|
E-|-----------------|-------------------------------|
  |                 |                               |
E-|-----------------|-------------------------------|
B-|----------7~-----|-------------------------------|
G-|-----------------|--9--8-------------------------|
D-|--6~--9~---------|--------6--9--8----------------|
A-|-----------------|-----------------9--6~~--------|
E-|-----------------|-------------------------------|


E-|----------14~--|--------------14---------------|----------------|
B-|---------------|----------17------17--16-------|----------------|
G-|------16-------|------16------------------13~--|--16p15--16~~~--|
D-|--14-----------|--14---------------------------|----------------|
A-|---------------|-------------------------------|----------------|
E-|---------------|-------------------------------|----------------|
  |               |                               |                |
E-|---------------|-------------------------------|----------------|
B-|--------7~-----|-----------7-------------------|----------------|
G-|-----9---------|--------9-----9--8-------------|----------------|
D-|--6------------|--6--9--------------6~~--------|--9p8--9~~~-----|
A-|---------------|-------------------------------|----------------|
E-|---------------|-------------------------------|----------------|


E-|-------------------------------16~--|--14------------------------------------------------|
B-|-------------------14---------------|------17--16--17--16-------14-----------------------|
G-|--13~------13--16------16--13-------|----------------------13~------16--15--16--15-------|
D-|-------13---------------------------|-----------------------------------------------14~--|
A-|------------------------------------|----------------------------------------------------|
E-|------------------------------------|----------------------------------------------------|
  |                                    |                                                    |
E-|------------------------------------|----------------------------------------------------|
B-|------------------------9~~---------|--7-------------------------------------------------|
G-|---------------6--------------------|-----9--8--9--8------6------------------------------|
D-|--6~-----6--9-----9--6--------------|-----------------6~-----9--8--9--8------------------|
A-|------6-----------------------------|------------------------------------7~~-------------|
E-|------------------------------------|----------------------------------------------------|


E-|--------------------------------------------|------16--23~--21--23--21--19--21--18~~--|
B-|--t16p9h12--(x8)--t17p9h12--(x8)--t19p9h12--|--16-------------------------------------|
G-|--------------------------------------------|-----------------------------------------|
D-|--------------------------------------------|-----------------------------------------|
A-|--------------------------------------------|-----------------------------------------|
E-|--------------------------------------------|-----------------------------------------|
  |                                            |                                         |
E-|--------------------------------------------|--------11~--9--11--9--7--9--6~~---------|
B-|--------------------------------------------|-----9-----------------------------------|
G-|--------------------------------------------|--8--------------------------------------|
D-|--t13p6h9--(x8)--t14p6h9--(x8)--t16p6h9-----|-----------------------------------------|
A-|--------------------------------------------|-----------------------------------------|
E-|--------------------------------------------|-----------------------------------------|


E-|--18--19--21--19--18--19~~--|
B-|----------------------------|
G-|----------------------------|
D-|----------------------------|
A-|----------------------------|
E-|----------------------------|
  |                            |   End with the same two notes that bend in the intro.
E-|--6--7--9--7--6--7~~--------|
B-|----------------------------|
G-|----------------------------|
D-|----------------------------|
A-|----------------------------|
E-|----------------------------|


Also, when the drum beats are accented for the pause, this riff plays along 
with them

E-|------------------
B-|------------------
G-|------------------
D-|--9---8--9--8--9--
A-|--7---6--7--6--7--
E-|------------------

VGJam Tabs Street Fighter Alpha - "Adon's theme"
Tabs database last modified Tuesday, 01-Nov-2016 19:14:53 UTC.
Copyright © 1999 - 2016 VideoGameJam.com. All rights reserved.