VGJam Tabs Street Fighter Alpha 2
Street Fighter Alpha 2
"Sakura's theme" - Guitar tab
Platform(s):PlayStation
Tabbed by:djnewspaper
Last modified:2001-09-05
Print it:Original file (.TXT)
#----------------------------------PLEASE NOTE--------------------------------#
#This file is the author's own work and represents their interpretation of the#
#song. You may only use this file for private study, scholarship, or research.#
#-----------------------------------------------------------------------------#


Title: sakuras theme from street fighter alpha 2 for the psx
Transcribed by: djnewspaper
Email: djnewspaper@aol.com

   This is pretty accurate except for the end which is a little messy i 
did the best i could with it
 though.If you have any corrections send them to me.


-|--------------------------9--8--6--------6-6--------------------------------
-|---6-9--9--11-11--9-11-9----------9----9----------6-9--9--11--11--9--11-13--
-|-6----------------------------------------------6---------------------------
-|----------------------------------------------------------------------------
-|----------------------------------------------------------------------------
-|----------------------------------------------------------------------------


-9--8--9--11---8--9------|
---------------------11--|
-------------------------|
-------------------------|
-------------------------|
-------------------------|


-|-9-9--------11-11---13--9-9------11-11--13--9-8----------------------8-9----
-|------11-9------------------11-9----------------11-9-11--11---9-11----------
-|----------------------------------------------------------------------------
-|----------------------------------------------------------------------------
-|----------------------------------------------------------------------------
-|----------------------------------------------------------------------------


---------11--13--9-9----8--11-13-9-8-9-|
-11p9-----------------9----------------|
-----10--------------------------------|
---------------------------------------|
---------------------------------------|
---------------------------------------|


-|--------------------------8-10-12--10----12--10-10--15--12--10-10-----------
-|-10-1010-10-8-10-------10---------------------------------------------------
-|-----------------9--10------------------------------------------------------
-|----------------------------------------------------------------------------
-|----------------------------------------------------------------------------
-|----------------------------------------------------------------------------


-------------------------9-11-13-11-----11--13-13----14---16---13|
--11-1111-11-9-11------------------------------------------------|
------------------10--11-----------------------------------------|
-----------------------------------------------------------------|
-----------------------------------------------------------------|
-----------------------------------------------------------------|



VGJam Tabs Street Fighter Alpha 2 - "Sakura's theme"
Tabs database last modified Tuesday, 01-Nov-2016 19:14:53 UTC.
Copyright © 1999 - 2016 VideoGameJam.com. All rights reserved.