VGJam Tabs Street Fighter EX plus Alpha
Street Fighter EX plus Alpha
"M. Bison" - Guitar, Bass tab
Platform(s):PlayStation
Tabbed by:Blackbird
Last modified:1999-10-17
Print it:Original file (.TXT)
Hear it:MIDI file
#----------------------------------PLEASE NOTE---------------------------------#
#This file is the author's own work and represents their interpretation of the #
#song. You may only use this file for private study, scholarship, or research. #
#------------------------------------------------------------------------------#

Title: "Irreconcilable" (Vega/M. Bison BGM from Street Fighter EX+Alpha)
Bass and Guitar tablature by Blackbird (blk_bird@yahoo.com)

    This is my favorite piece from Street Fighter EX. It's a fairly simple 
heavy metal style song, with the same cool riff being repeated over and over,
so most of the variation comes from the keyboard parts.

Bass Part (Drop D Tuning)
=========================
Intro
-----
                               Repeat 2x
-----------------|-----------------|-----------------|-----------------|
*----------------|-----------------|-----------------|----------------*|
*----------------|-----------2---0-|-----------------|-----0---0-1---0*|
-0-2---2-0---0-2-|---2-0---0-------|-0-2---2-0---0-2-|---2-------------|

Main Part
---------
   Repeat 24x         Repeat 8x         Repeat 8x
-----------------|-----------------|-----------------|
*---------------*|*--0---0---0----*|*---------------*|
*---------------*|*3-------------3*|*---------------*|
-0-2---2---2---0-|-----------------|-0-2---2---2---0-|

-----------------|-----------------|-----------------|-----------------|
-----------------|-1---------------|-----------------|-1---------------|
-2---2-2-2-0---2-|-----2-0-2-----2-|-----2-2-2-0---2-|-----------------|
-----------------|-----------3-----|-----------------|-----------------|

-----------------|-----------------|-----------------|-----------------|
-----------------|-1---------------|-----------------|-1--------0------|
-2---2-2-2-0---2-|-----2-0-2-----2-|-----2-2-2-0---2-|-----------------|
-----------------|-----------3-----|-----------------|--------0---0----|

-----------------|-----------------|-----------------|-----------------|
-----------------|-1---------------|-----------------|-1---------------|
-2---2-2-2-0---2-|-----2-0-2-----2-|-----2-2-2-0---2-|-----------------|
-----------------|-----------3-----|-----------------|-----------------|

-----------------|-----------------|-----------------|-----------------|
-----------------|-1---------------|-----------------|-1--1------------|
-2---2-2-2-0---2-|-----2-0-2-----2-|-----2-2-2-0---2-|-----2-0-2-0-24--|
-----------------|-----------1-----|-----------------|-----------------|
Now start again from the beginning of the main part.

Guitar Part
===========
             Repeat 5x
-----------------|-----------------|-----------------|-----------------|
-----------------|-----------------|-----------------|-----------------|
*----------------|-----0---0--2--0*|-----------------|-----0---0--3--2-|
*0-2---2-0---0-2-|---2-0---0--2--0*|-0-2---2-0---0-2-|---2-0---0--3--2-|
-0-2---2-0---0-2-|---2-------------|-0-2---2-0---0-2-|---2-------------|
-----------------|-----------------|-----------------|-----------------|

                               Repeat 6x
-----------------|-----------------|-----------------|-----------------|
-----------------|-----------------|-----------------|-----------------|
*----------------|-----0---0--2--0-|-----------------|-----0---0--3--2*|
*0-2---2-0---0-2-|---2-0---0--2--0-|-0-2---2-0---0-2-|---2-0---0--3--2*|
-0-2---2-0---0-2-|---2-------------|-0-2---2-0---0-2-|---2-------------|
-----------------|-----------------|-----------------|-----------------|

                               Repeat 2x
-----------------|-----------------|-----------------|-----------------|
-----------------|-----------------|-----------------|-----------------|
*----------------|-----------0-----|-----------------|-----------1---0*|
*--0---0-------0-|---0-3---3-0---3-|---0---0-------0-|---0-3---3-1---0*|
-3-0---0-3---3-0-|---0-3---3-----3-|-3-0---0-3---3-0-|---0-3---3-------|
-3-------3---3---|-----------------|-3-------3---3---|-----------------|

                               Repeat 2x
-----------------|-----------------|-----------------|-----------------|
-----------------|-----------------|-----------------|-----------------|
*----------------|-----0---0--2--0-|-----------------|-----0---0--3--2*|
*0-2---2-0---0-2-|---2-0---0--2--0-|-0-2---2-0---0-2-|---2-0---0--3--2*|
-0-2---2-0---0-2-|---2-------------|-0-2---2-0---0-2-|---2-------------|
-----------------|-----------------|-----------------|-----------------|

                               Repeat 3x
-----------------|-----------------|-----------------|-----------------|
-0---0-0-0-2---0-|-4---0---0-----0-|-0---0-0-0-2---0-|-4---------------|
*----------------|-------2---------|-----------------|----------------*|
*----------------|-1-------2-3-----|-----------------|-1--------------*|
-2---2-2-2-0---2-|-----2-0-------2-|-2---2-2-2-0---2-|-----------------|
-----------------|-----------1-----|-----------------|-----------------|

-----------------|-----------------|-----------------|-----------------|
-0---0-0-0-----0-|-4---0---0-----0-|-----0-0-0-----0-|-4---------------|
-----------2-----|-------2---------|-----------2-----|-----------------|
-----------------|-0---------3-----|-----------------|-0---------------|
-2---1-1-1-----1-|-----1---1-----1-|-----1-1-1-----1-|-----------------|
-----------4-----|-------4---0-----|-----------4-----|-----------------|
Now Start Over

------------------------------------------------------------------
Ewen "Blackbird" Cluney                         blk_bird@yahoo.com
Blackbird's Domain            http://www.geocities.com/tokyo/6127/
Knight Kevlar of the Immortal Frog        Silver Knight of Mihoshi
              "Be nice to me; I might just develop 
             psychokinetic powers and destroy Tokyo!"
------------------------------------------------------------------

VGJam Tabs Street Fighter EX plus Alpha - "M. Bison"
Tabs database last modified Tuesday, 01-Nov-2016 19:14:53 UTC.
Copyright © 1999 - 2016 VideoGameJam.com. All rights reserved.