VGJam Tabs Suikoden
Suikoden
"Main Theme Arrange ~ Guitar Version" - Guitar tab
Platform(s):PlayStation
Composed by:Miki Higashino, Tappy Iwase, Taniguchi, Mayuko Kageshita, Hiroshi Tamawari
Soundtrack:Genso Suikoden Original Game Soundtrack (track D1-05)
Tabbed by:Tang
Last modified:2002-07-01
Print it:Original file (.TXT)
Hear it:MIDI file
Main Theme Arrange (Young Master's Home)
Game: Suikoden
Transcribed by: Tang (fot@tm.net.my)
Time Signature: 4/4
Album: Genso Suikoden OGV (Disc 1 - Track 6)

This is the sweet guitar playing when you are in your home (suikoden).
It uses 2 acoustic guitar. I created this tab using Guitar pro 3. If
you have the program and you want the gp3 version, contact me (fot@tm.net.my)
and I'll send it to you. It's much easier to read and print the tab in
guitar pro. Enjoy!

/ - slide
h - hammer


Guitar 1 (Melody)


E||------|------|------|------|----------------------|------------------------|
B||------|------|------|------|------------10--------|----------10------------|
G||------|------|------|------|--8/9-----------------|--10/11-----------------|
D||------|------|------|------|----------------------|------------------------|
A||------|------|------|------|----------------------|------------------------|
E||------|------|------|------|----------------------|------------------------|



---------------------|--9----10----9----------|-----------------------|
---------------10----|------------------10----|-----------------------|
----------9----------|------------------------|--10/11---9------------|
---------------------|------------------------|-----------------------|
---------------------|------------------------|-----------------------|
---------------------|------------------------|-----------------------|



------------------|------------------|------------------|----------------------|
------------------|------------------|------------------|------------10--------|
------------------|------------------|------------------|--8/9-----------------|
------------------|------------------|------------------|----------------------|
------------------|------------------|------------------|----------------------|
------------------|------------------|------------------|----------------------|



------------------------|---------------------|--9----10----9----------|
----------10------------|---------------10----|------------------10----|
--10/11-----------------|----------9----------|------------------------|
------------------------|---------------------|------------------------|
------------------------|---------------------|------------------------|
------------------------|---------------------|------------------------|



----------------------|------------------|------------------|------------------|
--11/12---------------|------------------|------------------|------------------|
----------------------|------------------|------------------|------------------|
----------------------|------------------|------------------|------------------|
----------------------|------------------|------------------|------------------|
----------------------|------------------|------------------|------------------|



----------------------|------------------------|---------------------|
------------10--------|----------10------------|---------------10----|
--8/9-----------------|--10/11-----------------|----------9----------|
----------------------|------------------------|---------------------|
----------------------|------------------------|---------------------|
----------------------|------------------------|---------------------|



--9----10----9----------|-----------------------|------------------|
------------------10----|-----------------------|------------------|
------------------------|--10/11---9------------|------------------|
------------------------|-----------------------|------------------|
------------------------|-----------------------|------------------|
------------------------|-----------------------|------------------|



------------------|------------------|----------------------|
------------------|------------------|------------10--------|
------------------|------------------|--8/9-----------------|
------------------|------------------|----------------------|
------------------|------------------|----------------------|
------------------|------------------|----------------------|



------------------------|-----------------------|---------------------------|
----------10------------|------------9----10----|--11/12---12--------10--9--|
--10/11-----------------|------11---------------|---------------------------|
------------------------|-----------------------|---------------------------|
------------------------|-----------------------|---------------------------|
------------------------|-----------------------|---------------------------|



--------------------|------------------|------------------|------------------|
--------------------|------------------|------------------|------------------|
--11----------------|------------------|------------------|------------------|
--------------------|------------------|------------------|------------------|
--------------------|------------------|------------------|------------------|
--------------------|------------------|------------------|------------------|



----------------------------------|------------------9----|
--11h12-10--12--10--12----10--12--|------10----12---------|
----------------------------------|-----------------------|
----------------------------------|-----------------------|
----------------------------------|-----------------------|
----------------------------------|-----------------------|



----------------------|-----------------------|
--9/10----------------|-----------------10----|
---------9------------|------9----11----------|
----------------------|-----------------------|
----------------------|-----------------------|
----------------------|-----------------------|



----------------------------------|----------------9--10----|
--11h12-10--12--10--12----10--12--|------10----12-----------|
----------------------------------|-------------------------|
----------------------------------|-------------------------|
----------------------------------|-------------------------|
----------------------------------|-------------------------|



--12----------------|------9----10----12----|--13--14--14------------|
--------------------|-----------------------|------------------------|
--------------------|-----------------------|------------------------|
--------------------|-----------------------|------------------------|
--------------------|-----------------------|------------------------|
--------------------|-----------------------|------------------------|



------12----10----14----|--12--------9--------|-------------------------|
------------------------|---------------------|--10---------7--9--10----|
------------------------|---------------------|--------9----------------|
------------------------|---------------------|-------------------------|
------------------------|---------------------|-------------------------|
------------------------|---------------------|-------------------------|



------------------------|----------------9--10----|--11/12---12------------|
--11/12---12------------|------10----12-----------|------------------------|
------------------------|-------------------------|------------------------|
------------------------|-------------------------|------------------------|
------------------------|-------------------------|------------------------|
------------------------|-------------------------|------------------------|



------------------|------------------|------------------|--12----------------|
------------------|------------------|------------------|--------------------|
------------------|------------------|------------------|--------------------|
------------------|------------------|------------------|--------------------|
------------------|------------------|------------------|--------------------|
------------------|------------------|------------------|--------------------|



------------------|------------------|------------------|--------------12----|
------------------|------------------|------------------|--------------------|
------------------|------------------|------------------|--------------------|
------------------|------------------|------------------|--------------------|
------------------|------------------|------------------|--------------------|
------------------|------------------|------------------|--------------------|



--11/12-------9--------|--9/10-----------------|------9---------------|
-----------------------|---------12------------|-----------10---------|
-----------------------|-----------------------|-----------------9----|
-----------------------|-----------------------|----------------------|
-----------------------|-----------------------|----------------------|
-----------------------|-----------------------|----------------------|



--------------------------|--9/10---9------------|------------------|
----------------10--------|----------------------|------------------|
--10/11---11--------------|----------------------|------------------|
--------------------------|----------------------|------------------|
--------------------------|----------------------|------------------|
--------------------------|----------------------|------------------|



------------------|------------------|--11/12-------9--------|
------------------|------------------|-----------------------|
------------------|------------------|-----------------------|
------------------|------------------|-----------------------|
------------------|------------------|-----------------------|
------------------|------------------|-----------------------|



--9------------------|----------------------|---------------------------|
-------10------------|------7----9----10----|--11/12---12--------10--9--|
---------------------|----------------------|---------------------------|
---------------------|----------------------|---------------------------|
---------------------|----------------------|---------------------------|
---------------------|----------------------|---------------------------|



---------------------|------------------|------|------|--------------------|
--9--10--------------|------------------|------|------|----------10--------|
---------------------|------------------|------|------|--------------------|
---------------------|------------------|------|------|--------------------|
---------------------|------------------|------|------|--------------------|
---------------------|------------------|------|------|--------------------|



--10--------13--------|--14/15-------------------|--9h-10---------------||
----------------------|--------------------10----|----------------------||
----------------------|--------------10----------|--10------------------||
----------------------|--------------------------|----------------------||
----------------------|--------------------------|----------------------||
----------------------|--------------------------|----------------------||





Guitar 2 (Accompanyment)
 

E||----------------------|-----------------------|--0--------------0----|
B||----------------------|--2h3-------------3----|------------0---------|
G||------------2---------|-------------2---------|-------1--------------|
D||-------2---------2----|--------4--------------|----------------------|
A||--0-------------------|-----------------------|----------------------|
E||----------------------|-----------------------|----------------------|



----------------------|----------------------|-----------------------|
--3--------------3----|----------------------|--2h3-------------3----|
------------2---------|------------2---------|-------------2---------|
-------4--------------|-------2---------2----|--------4--------------|
----------------------|--0-------------------|-----------------------|
----------------------|----------------------|-----------------------|



--0--------------0----|----------------------|----------------------|
------------0---------|--3--------------3----|----------------------|
-------1--------------|------------2---------|------------2---------|
----------------------|-------4--------------|-------2---------2----|
----------------------|----------------------|--0-------------------|
----------------------|----------------------|----------------------|



-----------------------|--0--------------0----|----------------------|
--2h3-------------3----|------------0---------|--3--------------3----|
-------------2---------|-------1--------------|------------2---------|
--------4--------------|----------------------|-------4--------------|
-----------------------|----------------------|----------------------|
-----------------------|----------------------|----------------------|



----------------------|-----------------------|--0--------------0----|
----------------------|--2h3-------------3----|------------0---------|
------------2---------|-------------2---------|-------1--------------|
-------2---------2----|--------4--------------|----------------------|
--0-------------------|-----------------------|----------------------|
----------------------|-----------------------|----------------------|



----------------------|----------------------|----------------------|
--3--------------3----|-----------------3----|--5----3--------------|
------------2---------|------------4---------|------------4---------|
-------4--------------|-------5--------------|-----------------5----|
----------------------|----------------------|----------------------|
----------------------|--3-------------------|----------------------|



------------------|------------------|----------------------|
------------------|------------------|----------------------|
------------------|------------------|------------2---------|
------------------|------------------|-------2---------2----|
------------------|------------------|--0-------------------|
------------------|------------------|----------------------|



-----------------------|--0--------------0----|----------------------|
--2h3-------------3----|------------0---------|--3--------------3----|
-------------2---------|-------1--------------|------------2---------|
--------4--------------|----------------------|-------4--------------|
-----------------------|----------------------|----------------------|
-----------------------|----------------------|----------------------|



----------------------|-----------------------|--0--------------0----|
----------------------|--2h3-------------3----|------------0---------|
------------2---------|-------------2---------|-------1--------------|
-------2---------2----|--------4--------------|----------------------|
--0-------------------|-----------------------|----------------------|
----------------------|-----------------------|----------------------|



----------------------|----------------------|----------------------|
--3--------------3----|-----------------2----|----------------------|
------------2---------|------------1---------|----------------------|
-------4--------------|-------2--------------|-----------------4----|
----------------------|--4-------------------|-------0----4---------|
----------------------|----------------------|--2-------------------|



----------------------|----------------------|----------------------|
----------------------|-----------------2----|----------------------|
-----------------4----|------------1---------|------------2---------|
-------2----4---------|-------2--------------|-------4---------4----|
--2-------------------|--4-------------------|----------------------|
----------------------|----------------------|--2-------------------|



--2-------------------|------------------|-------------------|
-------2--------------|------------------|-------------------|
------------2---------|------------------|-------------------|
-----------------4----|------------------|----------2--------|
----------------------|------------------|-------------------|
----------------------|------------------|-------------------|



-----------------2----|--1--------------1----|--0-------------------|
------------3---------|------------3---------|------------2---------|
-------2--------------|-------2--------------|----------------------|
----------------------|----------------------|-------2---------2----|
--0-------------------|----------------------|--0-------------------|
----------------------|----------------------|----------------------|



-----------------------|-----------------2----|--1--------------1----|
--2h3---2--------------|------------3---------|------------3---------|
-------------2---------|-------2--------------|-------2--------------|
------------------2----|----------------------|----------------------|
--0--------------------|--0-------------------|----------------------|
-----------------------|----------------------|----------------------|



--0-------------------|--3----0--------------|------------2---------|
------------2---------|------------2---------|----------------------|
----------------------|----------------------|-------2---------2----|
-------2---------2----|-----------------2----|--0-------------------|
--0-------------------|--0-------------------|----------------------|
----------------------|----------------------|----------------------|



--4--------------4----|-----------------5----|-----------------2----|
--3---------5---------|------------5---------|------------2---------|
-------4--------------|-------6--------------|-------2--------------|
----------------------|----------------------|----------------------|
----------------------|--0-------------------|----------------------|
--0-------------------|----------------------|--2-------------------|



-----------------2----|-----------------2----|----------------------|
------------3---------|------------3---------|------------0----3----|
-------4--------------|-------4--------------|-------2--------------|
----------------------|----------------------|----------------------|
----------------------|----------------------|----------------------|
--3-------------------|--2-------------------|--0-------------------|



--5-------------------|----------------------|--5-------------------|
-------5----3---------|------------0----3----|-------5----3---------|
-----------------4----|-------2--------------|-----------------4----|
----------------------|----------------------|----------------------|
----------------------|----------------------|----------------------|
----------------------|--0-------------------|----------------------|



----------------------|----------------------|-----------------------|
------------0---------|--9-------------------|--9/-10-------9--------|
-----------------7----|-------9----7---------|--10/11-------9--------|
-------7--------------|-----------------9----|-----------------------|
----------------------|----------------------|-----------------------|
--0-------------------|----------------------|-----------------------|



--------------------|------------------|----------------------|
--7--------5--------|------------------|----------------------|
--7--------4--------|------------------|------------2---------|
--------------------|------------------|-------2---------2----|
--------------------|------------------|--0-------------------|
--------------------|------------------|----------------------|



-----------------------|--0--------------0----|----------------------|
--2h3-------------3----|------------0---------|--3--------------3----|
-------------2---------|-------1--------------|------------2---------|
--------4--------------|----------------------|-------4--------------|
-----------------------|----------------------|----------------------|
-----------------------|----------------------|----------------------|



----------------------|-----------------------|--0--------------0----|
----------------------|--2h3-------------3----|------------0---------|
------------2---------|-------------2---------|-------1--------------|
-------2---------2----|--------4--------------|----------------------|
--0-------------------|-----------------------|----------------------|
----------------------|-----------------------|----------------------|



----------------------|----------------------|----------------------|
--3--------------3----|-----------------2----|----------------------|
------------2---------|------------1---------|----------------------|
-------4--------------|-------2--------------|-----------------4----|
----------------------|--4-------------------|-------0----4---------|
----------------------|----------------------|--2-------------------|



----------------------|-----------------0----|----------------------|
----------------------|------------0---------|------------0---------|
-----------------4----|-------1--------------|-------2---------2----|
-------2----4---------|----------------------|--0-------------------|
--2-------------------|----------------------|----------------------|
----------------------|--0-------------------|----------------------|



--2-------------------|----------------------|--2-------------------|
-------3----0---------|------------0---------|-------3----0---------|
-----------------2----|-------2---------2----|-----------------2----|
----------------------|--0-------------------|----------------------|
----------------------|----------------------|----------------------|
----------------------|----------------------|----------------------|



----------------------|--1-------------------|-------------------|
------------0---------|-------3----0---------|-------------------|
-------2---------2----|-----------------2----|-------------------|
--0-------------------|----------------------|--0----------------|
----------------------|----------------------|-------------------|
----------------------|----------------------|-------------------|



------------------||
------------------||
------------------||
------------------||
------------------||
------------------||

VGJam Tabs Suikoden - "Main Theme Arrange ~ Guitar Version"
Tabs database last modified Tuesday, 01-Nov-2016 19:14:53 UTC.
Copyright © 1999 - 2016 VideoGameJam.com. All rights reserved.