VGJam Tabs Suikoden
Suikoden
"Theme of Sadness ~ Guitar Version" - Guitar tab
Platform(s):PlayStation
Composed by:Miki Higashino, Tappy Iwase, Taniguchi, Mayuko Kageshita, Hiroshi Tamawari
Soundtrack:Genso Suikoden Original Game Soundtrack (track D2-04)
Tabbed by:smoo
Last modified:2001-01-29
Print it:Original file (.TXT)
#----------------------------------PLEASE NOTE--------------------------------#
#This file is the author's own work and represents their interpretation of the#
#song. You may only use this file for private study, scholarship, or research.#
#-----------------------------------------------------------------------------#
#-- File created with Instab - http://www.pconline.com/~smcarey/instab.html --#
#-----------------------------------------------------------------------------#

Title: suikoden - sadness
Transcribed by: smoo (http://www.cjas.org/~smoo/tabs.htm)
-|------------------------|---------------------|-----------------------------
-|------------------------|---------------------|-----------------------------
-|------------------------|---------------------|-----------------------------
-|-6/7--7--9--9/11--9-7-6-|---------6--7--6-----|------------4---------4-5-7--
-|------------------------|-7h9--9----------9-7-|-4h5--5--7-----4--5-7--------
-|------------------------|---------------------|-----------------------------


-------|---------|-------------------7--7h9--7------|-----------------------|-
-------|---------|------6-7-9-10-10------------10-9-|-6h7--7--9--9h10--9-7-5|-
-------|---------|-6--8-----------------------------|-----------------------|-
-7/9-6-|-2/4--3--|----------------------------------|-----------------------|-
-------|---------|----------------------------------|-----------------------|-
-------|---------|----------------------------------|-----------------------|-


-|------------------------4-5-5h7--4-|-------------------------|--------------
-|------------7-------5-7------------|-------7--7--------7--7--|--------------
-|-6h7--7--9-----6--7----------------|-4--6-----------6-----6--|--------------
-|-----------------------------------|-------------8--------8--|--------------
-|-----------------------------------|-------------------------|--------------
-|-----------------------------------|-------------------------|--------------


-|------5--7--9-|-9--10--12--12/14-|-14--12--10--10h12-|-10--9--7--7h9-|------
-|-5/7----------|------------------|-------------------|---------------|------
-|--------------|------------------|-------------------|---------------|------
-|--------------|------------------|-------------------|---------------|------
-|--------------|------------------|-------------------|---------------|------
-|--------------|------------------|-------------------|---------------|------


-|--------------9-|-9--10--12--12/14-|-------------7-9--10-9--7--5-|----------
-|-9h10--10--12---|------------------|-------9-10------------------|----------
-|----------------|------------------|-9/11------------------------|----------
-|----------------|------------------|-----------------------------|----------
-|----------------|------------------|-----------------------------|----------
-|----------------|------------------|-----------------------------|----------

VGJam Tabs Suikoden - "Theme of Sadness ~ Guitar Version"
Tabs database last modified Tuesday, 01-Nov-2016 19:14:53 UTC.
Copyright © 1999 - 2016 VideoGameJam.com. All rights reserved.