VGJam Tabs Shin Megami Tensei: Digital Devil Saga
Shin Megami Tensei: Digital Devil Saga
"Sahasrara" - Guitar tab
Platform(s):PlayStation 2
Composed by:Shoji Meguro
Tabbed by:redhonour
Last modified:2009-09-07
Date added:2009-12-07
Print it:Original file (.TXT)
Hear it:MIDI file
PS2, SMT: Digital Devil Saga
"Sahasrara"
Original Composer: Shoji Meguro


Standard Tunning: EADGBe

Basic structure:

Part 1 x2
Part 2
Part 1 x2
Part 2
Part 3 x2
Part 1 x2
Part 2
Solo
Part 3 x2

Guitar 1

Part 1                        
e|--------4--------4------------------|--------------|
B|-----5--------4--------5------------|--------------|
G|--6--------4-----------6(let ring)--|--------------|
D|--------------------7--7------------|--------------|
A|------------------------------------|--------------|
E|------------------------------------|--------------|

Part 2                      (let ring)             (let ring)
--------4--------4----------|-----------------------|------------|-------------|
-----5--------4--------5----|-----------------------|------------|-------------|
--6--------4-----------6----|---------------6--6----|------------|-------------|
--------------------7--7----|---------------7--6----|------------|-------------|
----------------------------|------------------4----|------------|-------------|
----------------------------|-----------------------|------------|-------------|

Part 3  
---------------------|------------------|--------------------|---------------------|
--7--------7---------|--7--------7------|--5--------5--------|--5--------5---------|
--------7------------|--------7---------|--------6-----------|--------6------------|
-----7---------------|-----7------------|-----6--------------|-----6---------------|
---------------------|------------------|--------------------|---------------------|
---------------------|------------------|--------------------|---------------------|


Guitar 2

Solo
----------7~---9--9^~--9~-7---------|------------|--------7------------------|---------------|
-----7/9--------------------9~------|------------|-7/9~------9p-7-5h-7p-5----|------------7--|
------------------------------------|------------|---------------------------|---------------|
------------------------------------|------------|---------------------------|---------------|
------------------------------------|------------|---------------------------|---------------|
------------------------------------|------------|---------------------------|---------------|



-----7--9----9^---9p7---------|
--9-------------------9~------|
------------------------------|
------------------------------|
------------------------------|
------------------------------|

VGJam Tabs Shin Megami Tensei: Digital Devil Saga - "Sahasrara"
Tabs database last modified Tuesday, 01-Nov-2016 19:14:53 UTC.
Copyright © 1999 - 2016 VideoGameJam.com. All rights reserved.