VGJam Tabs Suikoden II
Suikoden II
"Green Hill theme" - Guitar tab
Platform(s):PlayStation
Composed by:Miki Higashino, Konami Kukeiha Club
Tabbed by:Jonathan Bouldin
Last modified:2002-09-02
Print it:Original file (.TXT)
Author/Artist: Genso Suikoden 2
Title: Green Hill Theme
Album: Genso Suikoden Vol. 2 Disk 1
Transcribed by: Jonathan Bouldin
Email: Lunchboxs@hotmail.com

This song is tricky to play. Quite tricky, really. Its a 
brilliant song though, with its awesome alternating 
time signatures, rather fast tempo, a tough solo and 
finger picking. Its only got a couple hard fingerings in 
it, the rest if pretty basic. You'll need a cut away 
acoustic guitarif you wanna reach those higher frets. 
Oh, and tune your G string down to F. Thats all. 
Good luck with it.

----------------------------------------------------|-------------------------
-10---11-13---13-15---15-13---13-11---11-10---8-10--|-------------------------
----0-------0-------0-------0-------0-------0------0|-------------------------
----------------------------------------------------|-------------------------
-8----10-12---12-13---13-12---12-10---10-8----7-8---|-------------------------
----------------------------------------------------|-------------------------
 Time signature: 7/4                                 x2

----------------------------------------------------------|-------------------
-10---11-13---15-16---16-15---15-13---13-11---11-10-8-10--|-------------------
----0-------0-------0-------0-------0-------0------------0|-------------------
----------------------------------------------------------|-------------------
-8----10-12---13-15---15-13---13-12---12-10---10-8--7-8---|-------------------
----------------------------------------------------------|-------------------
 Time signature: 8/4                                       x2

---------------------------------|--------------------------------------------
-10---8-6---5-3---5-6---6-6---5-6|--------------------------------------------
----0-----0-----0-----0-----5----|--------------------------------------------
---------------------------------|--------------------------------------------
-8----7-5---3-1---3-5---5-------8|--------------------------------------------
--------------------------8------|--------------------------------------------
 Time signature: 6/4              x2

-------------------------------------------|----------------------------------
-------------------------------------------|----------------------------------
--0-------0-------0-------0-----0----------|----------------------------------
-------------------------------------------|----------------------------------
-8--10--12--12--13--13--12-12-10-10-8-7-8--|----------------------------------
------------------------------------------8|----------------------------------
 backing guitar during solo part 1          x2

----------------------------------------|-------------------------------------
----------------------------------------|-------------------------------------
--0-----0----0----0---------------------|-------------------------------------
---------8-10-10-8-8---0-----0----------|-------------------------------------
-8-10-12-------------12-12-10-10-8-7-8--|-------------------------------------
---------------------------------------8|-------------------------------------
 backing guitar during solo part 2       x2

---------5h6p5--------------------------------------6-8---6-5h6p5---5---------
-6p5h6h8-------8-6--5-6-5-5-------------------6-8-9---------------8-----------
----------------------------9-7-----------7h9---------------------------------
--------------------------------8-7---7h8-------------------------------------
------------------------------------------------------------------------------
------------------------------------------------------------------------------
 solo played over backing guitar part 1

-13-12-13----13----13---------------------------------------------------------
----------13----11----15-13-11-13-11-10-11-10----10---------------------------
----------------------------------------------14----14-12-14-12-11-9----------
---------------------------------------------------------------------10-8-----
------------------------------------------------------------------------------
------------------------------------------------------------------------------
 solo played over backing guitar part 2

--------------------------6-8-10-12-13----------------------------------------
-------------6-8-10-11-10--------------13--15-13-11---------------------------
------------------------------------------------------------------------------
-7h8p7------------------------------------------------------------------------
-------10-8-------------------------------------------------------------------
------------------------------------------------------------------------------
 solo part 2 continued

-------------------------------------------|----------------------------------
-10h11p10h11p10h11p10h11p10--8-------------|----------------------------------
-------------------------------12-11--12-12|----------------------------------
-------------------------------------------|----------------------------------
-------------------------------------------|----------------------------------
-------------------------------------------|----------------------------------
 solo part 2 continued



VGJam Tabs Suikoden II - "Green Hill theme"
Tabs database last modified Tuesday, 01-Nov-2016 19:14:53 UTC.
Copyright © 1999 - 2016 VideoGameJam.com. All rights reserved.