VGJam Tabs Tekken 3
Tekken 3
"Jin's theme" - Guitar tab
Platform(s):PlayStation
Tabbed by:snocore_2000
Last modified:2000-05-06
Print it:Original file (.TXT)
Hear it:MIDI file
Jin's song from Tekken 3 ( i hope this is right)
tabbed by: steve email:snocore_2000@hotmail.com

E ------|------|-----------------------|---------------------------|--
B ------|------|-----------------------|---------------1---0-------|--
G ------|------|-------2-------2-------|-------2---------5---4-----|--
D ------|------|-4-2-4---4-2-4---4-2-4-|-4-2-4---4-2-4---------4-2-|-4
A ------|------|-----------------------|---------------------------|--
E ------|------|-----------------------|---------------------------|--

E ---------------------|---------------------------|------------------
B ---------------------|---------------1---0-------|------------------
G -----2-------2-------|-------2---------5---4-----|-------2-------2--
D -2-4---4-2-4---4-2-4-|-4-2-4---4-2-4---------4-2-|-4-2-4---4-2-4---4
A ---------------------|---------------------------|------------------
E ---------------------|---------------------------|------------------

E -----|---------------------------|-----------------------|----------
B -----|---------------1---0-------|-----------------------|----------
G -----|-------2---------5---4-----|-------2-------2-------|-------2--
D -2-4-|-4-2-4---4-2-4---------4-2-|-4-2-4---4-2-4---4-2-4-|-4-2-4---4
A -----|---------------------------|-----------------------|----------
E -----|---------------------------|-----------------------|----------

E -----------------|-----------------------|--------------------------
B -----1---0-------|-----------------------|---------------1---0------
G -------5---4-----|-------2-------2-------|-------2---------5---4----
D -2-4---------4-2-|-4-2-4---4-2-4---4-2-4-|-4-2-4---4-2-4---------4-2
A -----------------|-----------------------|--------------------------
E -----------------|-----------------------|--------------------------

E -|-----------------------|---------------------------|--------------
B -|-----------------------|---------------1---0-------|--------------
G -|-------2-------2-------|-------2---------5---4-----|-------2------
D -|-4-2-4---4-2-4---4-2-4-|-4-2-4---4-2-4---------4-2-|-4-2-4---4-2-4
A -|-----------------------|---------------------------|--------------
E -|-----------------------|---------------------------|--------------

E ---------|---------------------------|-----------------------|------
B ---------|---------------1---0-------|-----------------------|------
G -2-------|-------2---------5---4-----|-------2-------2-------|------
D ---4-2-4-|-4-2-4---4-2-4---------4-2-|-4-2-4---4-2-4---4-2-4-|-4-2-4
A ---------|---------------------------|-----------------------|------
E ---------|---------------------------|-----------------------|------

E -------------------|-----------------------|------------------------
B -------------------|-----------------------|---------------1---0----
G -------------------|-------2-------2-------|-------2---------5---4--
D -4-2-4-4-4-4-4-4-4-|-4-2-4---4-2-4---4-2-4-|-4-2-4---4-2-4---------4
A -------------------|-----------------------|------------------------
E -------------------|-----------------------|------------------------

E ---|-----------------------|---------------------------|------------
B ---|-----------------------|---------------1---0-------|------------
G ---|-------2-------2-------|-------2---------5---4-----|-------2----
D -2-|-4-2-4---4-2-4---4-2-4-|-4-2-4---4-2-4---------4-2-|-4-2-4---4-2
A ---|-----------------------|---------------------------|------------
E ---|-----------------------|---------------------------|------------

E -----------|---------------------------|-----------------------|----
B -----------|---------------1---0-------|-----------------------|----
G ---2-------|-------2---------5---4-----|-------2-------2-------|----
D -4---4-2-4-|-4-2-4---4-2-4---------4-2-|-4-2-4---4-2-4---4-2-4-|-4-2
A -----------|---------------------------|-----------------------|----
E -----------|---------------------------|-----------------------|----

E -----------------------|------|------|------|------|------|------|--
B -----------1---0-------|------|------|------|------|------|------|--
G ---2---------5---4-----|------|------|------|------|------|------|--
D -4---4-2-4---------4-2-|------|------|------|------|------|------|--
A -----------------------|------|------|------|------|------|------|--
E -----------------------|------|------|------|------|------|------|--

E ----|------|-----------------------|---------------------------|----
B ----|------|-----------------------|---------------1---0-------|----
G ----|------|-------2-------2-------|-------2---------5---4-----|----
D ----|------|-4-2-4---4-2-4---4-2-4-|-4-2-4---4-2-4---------4-2-|-4-2
A ----|------|-----------------------|---------------------------|----
E ----|------|-----------------------|---------------------------|----

E -------------------|---------------------------|--------------------
B -------------------|---------------1---0-------|--------------------
G ---2-------2-------|-------2---------5---4-----|-------2-------2----
D -4---4-2-4---4-2-4-|-4-2-4---4-2-4---------4-2-|-4-2-4---4-2-4---4-2
A -------------------|---------------------------|--------------------
E -------------------|---------------------------|--------------------

E ---|---------------------------|-----------------------|------------
B ---|---------------1---0-------|-----------------------|------------
G ---|-------2---------5---4-----|-------2-------2-------|-------2----
D -4-|-4-2-4---4-2-4---------4-2-|-4-2-4---4-2-4---4-2-4-|-4-2-4---4-2
A ---|---------------------------|-----------------------|------------
E ---|---------------------------|-----------------------|------------

E ---------------|------|------|------|------|------|------|------|---
B ---1---0-------|------|------|------|------|------|------|------|---
G -----5---4-----|------|------|------|------|------|------|------|---
D -4---------4-2-|------|------|------|------|------|------|------|---
A ---------------|------|------|------|------|------|------|------|---
E ---------------|------|------|------|------|------|------|------|---

E ---|------|------|------|------|------|------|------|------|------|-
B ---|------|------|------|------|------|------|------|------|------|-
G ---|------|------|------|------|------|------|------|------|------|-
D ---|------|------|------|------|------|------|------|------|------|-
A ---|------|------|------|------|------|------|------|------|------|-
E ---|------|------|------|------|------|------|------|------|------|-



E -----|------|------|-----2-----2-|---------------------|-----2-----2
B -----|------|------|-------------|---------------------|------------
G -----|------|------|-------------|-------2-------2-----|------------
D -----|------|------|---4-----4---|-4-2-4---4-2-4---4-2-|---4-----4--
A -----|------|------|-------------|---------------------|------------
E -----|------|------|-2-----2-----|---------------------|-2-----2----


E -|---------------------|-----2-----2-|---------------------|-----2--
B -|---------------------|-------------|---------------------|--------
G -|-------2-------2-----|-------------|-------2-------2-----|--------
D -|-4-2-4---4-2-4---4-2-|---4-----4---|-4-2-4---4-2-4---4-2-|---4----
A -|---------------------|-------------|---------------------|--------
E -|---------------------|-2-----2-----|---------------------|-2-----2



E ---2-|-----2-|-----------------------|---------------------------|--
B -----|-------|-----------------------|---------------1---0-------|--
G -----|-------|-------2-------2-------|-------2---------5---4-----|--
D -4---|---4---|-4-2-4---4-2-4---4-2-4-|-4-2-4---4-2-4---------4-2-|-4
A -----|-------|-----------------------|---------------------------|--
E -----|-2-----|-----------------------|---------------------------|--

E ---------------------|---------------------------|------------------
B ---------------------|---------------1---0-------|------------------
G -----2-------2-------|-------2---------5---4-----|-------2-------2--
D -2-4---4-2-4---4-2-4-|-4-2-4---4-2-4---------4-2-|-4-2-4---4-2-4---4
A ---------------------|---------------------------|------------------
E ---------------------|---------------------------|------------------

E -----|---------------------------|-----------------------|----------
B -----|---------------1---0-------|-----------------------|----------
G -----|-------2---------5---4-----|-------2-------2-------|-------2--
D -2-4-|-4-2-4---4-2-4---------4-2-|-4-2-4---4-2-4---4-2-4-|-4-2-4---4
A -----|---------------------------|-----------------------|----------
E -----|---------------------------|-----------------------|----------

E -----------------|------|------|------|------|------|------|------|-
B -----1---0-------|------|------|------|------|------|------|------|-
G -------5---4-----|------|------|------|------|------|------|------|-
D -2-4---------4-2-|------|------|------|------|------|------|------|-
A -----------------|------|------|------|------|------|------|------|-
E -----------------|------|------|------|------|------|------|------|-

E -----|-----------------------|---------------------------|----------
B -----|-----------------------|---------------1---0-------|----------
G -----|-------2-------2-------|-------2---------5---4-----|-------2--
D -----|-4-2-4---4-2-4---4-2-4-|-4-2-4---4-2-4---------4-2-|-4-2-4---4
A -----|-----------------------|---------------------------|----------
E -----|-----------------------|---------------------------|----------

E -------------|---------------------------|-----------------------|--
B -------------|---------------1---0-------|-----------------------|--
G -----2-------|-------2---------5---4-----|-------2-------2-------|--
D -2-4---4-2-4-|-4-2-4---4-2-4---------4-2-|-4-2-4---4-2-4---4-2-4-|-4
A -------------|---------------------------|-----------------------|--
E -------------|---------------------------|-----------------------|--

E -------------------------|-----------------------|------------------
B -------------1---0-------|-----------------------|---------------1--
G -----2---------5---4-----|-------2-------2-------|-------2---------5
D -2-4---4-2-4---------4-2-|-4-2-4---4-2-4---4-2-4-|-4-2-4---4-2-4----
A -------------------------|-----------------------|------------------
E -------------------------|-----------------------|------------------

E ---------|------|------|------|------|------|------|------|------|--
B -0-------|------|------|------|------|------|------|------|------|--
G ---4-----|------|------|------|------|------|------|------|------|--
D -----4-2-|------|------|------|------|------|------|------|------|--
A ---------|------|------|------|------|------|------|------|------|--
E ---------|------|------|------|------|------|------|------|------|--


E ------|------|-----2-----2-|---------------------|-----2-----2-|----
B ------|------|-------------|---------------------|-------------|----
G ------|------|-------------|-------2-------2-----|-------------|----
D ------|------|---4-----4---|-4-2-4---4-2-4---4-2-|---4-----4---|-4-2
A ------|------|-------------|---------------------|-------------|----
E ------|------|-2-----2-----|---------------------|-2-----2-----|----



E -----------------|-----2-----2-|---------------------|-----2-----2-|
B -----------------|-------------|---------------------|-------------|
G ---2-------2-----|-------------|-------2-------2-----|-------------|
D -4---4-2-4---4-2-|---4-----4---|-4-2-4---4-2-4---4-2-|---4-----4---|
A -----------------|-------------|---------------------|-------------|
E -----------------|-2-----2-----|---------------------|-2-----2-----|

E -----2-|-----------------------|---------------------------|--------
B -------|-----------------------|---------------1---0-------|--------
G -------|-------2-------2-------|-------2---------5---4-----|-------2
D ---4---|-4-2-4---4-2-4---4-2-4-|-4-2-4---4-2-4---------4-2-|-4-2-4--
A -------|-----------------------|---------------------------|--------
E -2-----|-----------------------|---------------------------|--------

E ---------------|---------------------------|-----------------------|
B ---------------|---------------1---0-------|-----------------------|
G -------2-------|-------2---------5---4-----|-------2-------2-------|
D -4-2-4---4-2-4-|-4-2-4---4-2-4---------4-2-|-4-2-4---4-2-4---4-2-4-|
A ---------------|---------------------------|-----------------------|
E ---------------|---------------------------|-----------------------|

E ---------------------------|-----------------------|----------------
B ---------------1---0-------|-----------------------|---------------1
G -------2---------5---4-----|-------2-------2-------|-------2--------
D -4-2-4---4-2-4---------4-2-|-4-2-4---4-2-4---4-2-4-|-4-2-4---4-2-4--
A ---------------------------|-----------------------|----------------
E ---------------------------|-----------------------|----------------

E -----------|
B ---0-------|
G -5---4-----|
D -------4-2-|
A -----------|
E -----------|
VGJam Tabs Tekken 3 - "Jin's theme"
Tabs database last modified Tuesday, 01-Nov-2016 19:14:53 UTC.
Copyright © 1999 - 2016 VideoGameJam.com. All rights reserved.