VGJam Tabs Tenchu: Stealth Assassins
Tenchu: Stealth Assassins
"Add'ua" - Guitar tab
Platform(s):PlayStation
Composed by:Noriyuki Asakura
Tabbed by:Deezer
Last modified:2001-12-15
Print it:Original file (.TXT)
#----------------------------------PLEASE NOTE---------------------------------#
#This file is the author's own work and represents their interpretation of the #
#song. You may only use this file for private study, scholarship, or research. #
#------------------------------------------------------------------------------#

Tenchu: Stealth Assassins (Sony PlayStation)
"Add'ua" (track #1)

Originally composed by: Noriyuki Asakura
------------------------------------------------------------------------------
Tabbed by: Deezer (deezer AT videogamejam DOT net)
For http://www.videogamejam.com
------------------------------------------------------------------------------

Symbols used:
     h = hammer-on
 harm. = natural harmonic
     b = bend
     r = release bend
  >>>> = crescendo (start soft, then gradually pick louder)
     \ = slide down

Acoustic guitar.

Tuning: Up 1/2 step - (low to high) FA#D#G#Cf
Or, capo the first fret and play everything relative to capo; e.g. "0" in tab
would be the capoed fret.


[Song starts off with non-English singing]


1:02
(Use sitar effect)
|-5---5-5--5----------5--5h6-5---5-5--5----------3--|
|-----------------5h8------------------------3h5----|
|---------------------------------------------------|
|---------------------------------------------------|
|---------------------------------------------------|
|---------------------------------------------------| x4

[More singing in non-English]

  2:04           
  harm..................*...............
-----------------------------------------------------------------
--5---------------------b(^1)-------r5---------------------------
--5---------------------b(^1)-------r5---------------------------
--5---------------------b(^1)-------r5---------------------------
-----------------------------------------------------------------
-----------------------------------------------------------------
  *Push down on strings behind nut to raise pitch of harmonics one step

     upstroke        harm.............*
----)10--------------------------------
----(10-------------)7-----------------
-----)9-------------(7-----------------
--------------------)7-----------------
---------------------------------------
---------------------------------------
                     *weird echo effect

   2:19
   <<<<<<<<<<<<<<    *  (hold bend)
---10-10-10-10-10--10b--10--10--10----
--------------------------------------
--------------------------------------
--------------------------------------
--------------------------------------
--------------------------------------
                     *about 1/4 bend 

    2:24       2:29               2:33              
    upstroke                         *
|--)10---------------12-15-15-------------------------------------
|--(10---------15-15--------------(12b)14r12------12-12--12\8-----
|---)9------------------------------------------------------------
|-----------------------------------------------------------------
|-----------------------------------------------------------------
|-----------------------------------------------------------------
                                     *pre-bend

   2:38         2:43
   upstroke     harm...............
|--)10-------------------------------
|--(10----------)5-------------------
|---)9----------(5-------------------
|---------------)5-------------------
|------------------------------------
|------------------------------------


Revision history:
 12/15/2001 - First draft.
 06/23/2007 - Fixed up some things.

VGJam Tabs Tenchu: Stealth Assassins - "Add'ua"
Tabs database last modified Tuesday, 01-Nov-2016 19:14:53 UTC.
Copyright © 1999 - 2016 VideoGameJam.com. All rights reserved.