VGJam Tabs Tenchu: Stealth Assassins
Tenchu: Stealth Assassins
"Ending" - Guitar tab
Platform(s):PlayStation
Composed by:Noriyuki Asakura
Tabbed by:Deezer
Last modified:2002-01-14
Print it:Original file (.TXT)
#----------------------------------PLEASE NOTE---------------------------------#
#This file is the author's own work and represents their interpretation of the #
#song. You may only use this file for private study, scholarship, or research. #
#------------------------------------------------------------------------------#

Tenchu: Stealth Assasins (Sony PlayStation)
"Born in Shadows... Die in Shadows" (?) (Ending theme)

Originally composed by: Noriyuki Asakura
------------------------------------------------------------------------------
Tabbed by: Deezer (deezer@kontek.net)
For http://www.kontek.net/vgjam/
------------------------------------------------------------------------------

Symbols used:
 / = slide up

Guitar one is violin tabbed for guitar (as Thomas would say, "vibrato
like mad!").

Standard tuning: (low to high) EADGBe

  [0:51]
G1|--17---20-17------17----------------------------------
U |--------------20------------17---20-17------17--------
I |----------------------------------------19------------
T |------------------------------------------------------
A |------------------------------------------------------
R |------------------------------------------------------

G1|--17---20-17------17--------20----------22-20-19--------------
U |--------------20----------------------------------------------
I |--------------------------------------------------------------
T |--------------------------------------------------------------
A |--------------------------------------------------------------
R |--------------------------------------------------------------
  |
G2|--------------------------------------------------------------
U |--------------------------------------------------------------
I |--------------------------------------------------------7/9---
T |--------------------------------------------------------------
A |--------------------------------------------------------------
R |--------------------------------------------------------------

G1|--17---20-17------17------------------------------------------
U |--------------20------------17---20-17------17----------------
I |----------------------------------------19--------------------
T |--------------------------------------------------------------
A |--------------------------------------------------------------
R |--------------------------------------------------------------
  |
G2|--------------------------------------------------------------
U |--------------------------------------------------------------
I |--------------------------------------------------------------
T |---------------5-5/7------------------------------------------
A |--------------------------------------------------------------
R |--------------------------------------------------------------

G1|--17---20-17------17--------20----------22-20-19----------------------
U |--------------20------------------------------------------------------
I |----------------------------------------------------------------------
T |----------------------------------------------------------------------
A |----------------------------------------------------------------------
R |----------------------------------------------------------------------
  |                                                     *
G2|-----------------------------------------------------(12-12-12-12-12)-
U |-----------------------------------------------------(12-12-12-12-12)-
I |----------------------------------------------------------------------
T |----------------------------------------------------------------------
A |----------------------------------------------------------------------
R |----------------------------------------------------------------------

* Omit notes in parenthesis during the first repeat.

[Piano solo 1]

Then repeat that first part.

[Piano solo 2]

Repeat again.

[Piano solo 3]

Violin outro:
=============
 [4:03]
-17---20-17------17----\12-----------------------------------------/17-------
-------------20-------------/17----17---20-17------17--\--15--------------20-
-----------------------------------------------19------------17-14-----------
-----------------------------------------------------------------------------
-----------------------------------------------------------------------------
-----------------------------------------------------------------------------

 [4:11]
-/20-----------/24--22--20h22p20--17--\----20---------22-20-19-----------24-
-------17-------------------------------17---------17-----------------24----
----------------------------------------------------------------------------
----------------------------------------------------------------------------
----------------------------------------------------------------------------
----------------------------------------------------------------------------

 [4:21]
---------17-19-20--(20)-/22--20p19h20p19-------
-17--------------------------------------17----
-----------------------------------------------
-----------------------------------------------
-----------------------------------------------
-----------------------------------------------

 [4:26]
---------------17---/19--\--15---------------------
----/17----/20-------------------17-17-------------
-17------------------------------------/19---17----
---------------------------------------------------
---------------------------------------------------
---------------------------------------------------

     [4:31]
G1|----/17----/24--22-20--19-----------/20-----22-20-19----------------------
U |-17-----------------------22----------------------------------------------
I |--------------------------------------------------------------------------
T |--------------------------------------------------------------------------
A |--------------------------------------------------------------------------
R |--------------------------------------------------------------------------
  |
G2|--------------------------------------------------------------12-12-12-12-
U |--------------------------------------------------------------12-12-12-12-
I |--------------------------------------------------------------------------
T |--------------------------------------------------------12h14-------------
A |--------------------------------------------------------------------------
R |--------------------------------------------------------------------------

If I had to double-check that violin outro, I'd go insane. But it should
be correct.


Last modified: 01/14/2002

VGJam Tabs Tenchu: Stealth Assassins - "Ending"
Tabs database last modified Tuesday, 01-Nov-2016 19:14:53 UTC.
Copyright © 1999 - 2016 VideoGameJam.com. All rights reserved.