VGJam Tabs Tenchu: Stealth Assassins
Tenchu: Stealth Assassins
"Training level" - Guitar tab
Platform(s):PlayStation
Composed by:Noriyuki Asakura
Tabbed by:Flare
Last modified:1999-06-28
Print it:Original file (.TXT)
This is guitar heard in the training level of Tenchu: Stealth Assassins.  It
is also the theme music of the game.  This tab is arranged in the flow of the
music and must be played slow to get that nice, blusey guitar sound heard in
the game.


  1)
      e-----------5----5/7--
      b------/7-------------
      g---------------------
      d---------------------


  2)
      e---------------------
      b----9--7--7\5/7------
      g---------------------
      d---------------------


  3)
      e---------------------
      b-9p7-------7---------
      g-------9-------------
      d---------------------


  4)
      e---------------------
      b-----3--5p3------5---
      g--4-----------4------
      d---------------------


  5)
      e---------------------
      b--5p3------5---------
      g--------4------------
      d---------------------


  6)
      e---------------------
      b-6\5--6p5-3----------
      g-----------------2/4-
      d---------------------


  7)
      e---------------------
      b--2p0----------------
      g---------2/4---------
      d---------------------


  8)
      e------7--9--7-----9---
      b--/9------------9-----
      g----------------------
      d----------------------


  9)
      e--9--7-----9--------
      b---------9----------
      g--------------------
      d--------------------


  10)
      e---/10--9---10--9----------------------------------------
      b-------------------------------12-10--12p10--------------
      g------------------------------------------------------11-
      d---------------------------------------------------------


  11)
      e-----------------
      b--12p10----------
      g------------11---
      d-----------------


  12)
      e--------------------------------
      b--------------------------------
      g--9b10--9----------10-9-------9-
      d---------------12----------12---


  13)
      e-----------------------------------
      b---10------------------------------
      g--------10p9--------10p9-----------
      d----------------12--------------12-


  14)
      e----------------------
      b----------------------
      g---12-----------------
      d--------12/14---------


The second part starts out like the first one, but in the third line of tab,
it has a flamenco-like guitar part.


  1)
      e--------6--6/8---
      b---/8------------
      g-----------------
      d-----------------


  2)
      e----10b11-8---
      b--------------
      g--------------
      d--------------


  3)
      e----8-10-10p8------------------------------------------------------
      b-------------------11--8-11-11p8----------------10b8---------------
      g---------------------------------------10---10------------10-10/12-
      d-------------------------------------------------------------------


I haven't attempted the rest after the flamenco part.  It is easy to do, but I
don't have an acoustic.  I would have to bend the hell out of my strings in
order to get it sound like the guy's guitar in the game.  If anyone else wants
more tab for this game just request it.  I have already finished the
following:
Level 5- Execute the Corrupt Minister
Level 8- Cure the Princess(My favorite, but damn long)


  ~Flare


VGJam Tabs Tenchu: Stealth Assassins - "Training level"
Tabs database last modified Tuesday, 01-Nov-2016 19:14:53 UTC.
Copyright © 1999 - 2016 VideoGameJam.com. All rights reserved.