VGJam Tabs Tomorrow Never Dies
Tomorrow Never Dies
"James Bond" - Guitar tab
Platform(s):PlayStation
Tabbed by:FTC
Last modified:2001-11-25
Print it:Original file (.TXT)
============================================================
Console   : Playstation
Game      : Tommorrow Never Dies
Song      : James Bond : Tommorow Never Dies (PS1 Theme)
Tabbed By : FTC (rampant520@aol.com)
Tuning    : Standard (e, b, g, d, a, E)
Symbols   : % (Rest), x (Harmonics), p (pulloff),
	    / (Slide Up), \ (Slide Down)
Page 	  : 1 of 1
============================================================

Time 0:12 - 0:13
e |--------
b |--------
g |--------
d |-4-4-4--
a |-4-4-4--
E |-2-2-2--

Time 0:14 - 1:00
e |------------------------------------------------------------
b |------------------------------------------------------------
g |------------------------------------------------------------  Gtr 1
d |---4-4-4-------5-5-5-------4-4-4-------5-5-5-x-5-x-5-x-5-x--	x 6
a |---4-4-4--%----5-5-5--%----4-4-4--%----5-5-5-x-5-x-5-x-5-x--
E |-0-2-2-2-----0-3-3-3-----0-2-2-2-----0-3-3-3-x-3-x-3-x-3-x--

Time 0:29 - 0:30 & 0:35 - 0:36
e |-----------------------------
b |-----------------------------
g |-----------------------------  Gtr 2
d |--------------------1p0-1p0--    x 2
a |-----------------------------
E |-----------------------------

Time 0:40 - 0:44 & 0:53 - 0:57
e |--------------------------------
b |--------------------------------
g |--------------------------------  Gtr 2
d |-1-0----%---(1-0)---------------    x 2
a |--------------------%----2-0-2--
E |--------------------------------

Time 1:00 - 1:26
e |------------------------------------------------------------------------
b |------------------------------------------------------------------------
g |------------------------------------------------------------------------  Gtr 1
d |---4-4-4--2-2-2----5-5-5--4-4-4----4-4-4--2-2-2----5-5-5-x-5-x-5-x-5-x--    x 4
a |---4-4-4--2-2-2----5-5-5--4-4-4----4-4-4--2-2-2----5-5-5-x-5-x-5-x-5-x--
E |-0-2-2-2--0-0-0--0-3-3-3--2-2-2--0-2-2-2--0-0-0--0-3-3-3-x-3-x-3-x-3-x--

Time 1:06 - 1:30
e |-------------------------------
b |-------------------------------
g |-------------------------------  Gtr 2
d |-------------------------------    x 4
a |---2-%-2/3-%-3/4-%-4\3-%-3/2---
E |-------------------------------


VGJam Tabs Tomorrow Never Dies - "James Bond"
Tabs database last modified Tuesday, 01-Nov-2016 19:14:53 UTC.
Copyright © 1999 - 2016 VideoGameJam.com. All rights reserved.