VGJam Tabs Twisted Metal 2
Twisted Metal 2
"Moscow (track 2)" - Guitar tab
Platform(s):PlayStation
Tabbed by:Bennett
Last modified:2001-05-28
Print it:Original file (.TXT)
*----------------------This file from Bennett----------------------*
*-------------Have Fun Practising And Getting It Right-------------*
*--If i haven't got it right i'm sorry but it's the best i can do--*

Date: Sunday, 03 of June 2001.
From: Eric (Nick) - "Bennett".
Subject: Track 03 - Moscow, Twisted Metal 2 (PS1).


		Twisted Metal 2 - Moscow

*Very Important*		
	1.Normal Tuning E,A,D,G,B,E. Starting with the Biggest String.
        2.Heavy Metal sound. Heavy Distortion.

Legend: 
* = Harmonic
/ = Slide
h = Hammer-on
p = Pull-off
" = Block strings
% = Let ring strings
| = Indicates there is a new bar
PM... = Palm Mute
R = Repeat Until you don't need to do it anymore.
WH = Whamy Bar (Vibrato w/ Bar)
~ = Vibrato

Starting Riff. (Riff 1).

|-2%-----------------------------------------------------| E Biggest String
|-4%----------------4%-----------------------------------| A
|-4%--4-----4-3-3h6-------4-4h6-----4--------------------| D
|-------2-1---------------------2-1---6%-----------------| G
|--------------------------------------------------------| B
|--------------------------------------------------------| E Smallest String

Second Riff (Riff 2) First Guitar (Guitar One)

PM..     .     .     .     .        ..     .     .
|-00-----0-----0-----0-----0------9-00-----0-----0-------|
|---6h7p6-6h7p6-6h7p6-6h7p6-9-7-6-----6h7p6-6h7p6-6------|
|--------------------------------------------------------|
|--------------------------------------------------------|
|--------------------------------------------------------|
|--------------------------------------------------------|

Second Riff (Riff 2) Second Guitar (Guitar Two)

PM..     .     .     .     .          ..     .     .
|-00-----0-----0-----0-----0----------00-----0-----0-----|
|--------------------------------------------------------|
|---8h9p8-8h9p8-8h9p8-8h9p8--------11---8h9p8-8h9p8-8----|
|---8h9p8-8h9p8-8h9p8-8h9p8-11-9-8------8h9p8-8h9p8-8----|
|--------------------------------------------------------|
|--------------------------------------------------------|

*This Riff changes frets. So instead of writting 
 everything over again in other frets i'll tell you where 
 to play it. (Guitar One) 6h7p6 --> 8h9p8
             (Guitar Two) 8h9p8 --> 10h11p10
                          8h9p8     10h11p10
End first bar in E Flat. Second bar in F Sharp.


The Third Riff. (Riff 3).

                 PM.......         ...........
|----------|----------------------|----------------|---------------|
|----------|---------------12-11%-|-11-12----------|---------12-11-|
|----14-11-|-12%---12-11-9--------|-------9-11-12%-|-12-11-9-------|
|-11-------|----------------------|----------------|---------------|
|----------|----------------------|----------------|---------------|
|----------|----------------------|----------------|---------------|

*After this there are some other small riffs with guitar screams
 very hard to figure out. This is the best i could do for the first
 two minutes of the song.

The Fourth Riff. (Riff 4). Keyboard (Like Riff One But Better)

|-2%-------------------------------------
|-4%----------------4%-------------------
|-4%--4-----4-3-3h6-------4-4h6-----4----
|-------2-1---------------------2-1---6%- Continues Below.
|----------------------------------------
|----------------------------------------

---------------------------------------|
---------------------------------------|
-----------------------------------3-4-|
-4-4h6-7-6-4-2h4h6-6-4-2-1h2h4-1h2-----|
---------------------------------------|
---------------------------------------|

The Fifth Riff (Riff 5). 

|-2-0-2-0-2-0-2-0-5-3-2-0-|-3--REPEAT-RIFF-3--------------------|
|-4---4---4---4-----------|-5-----------------------------------|
|-------------------------|-5-----------------------------------|
|-------------------------|-------------------------------------|
|-------------------------|-------------------------------------|
|-------------------------|-------------------------------------|

....... Sorry but that's about all I could find... It's a pretty 
       complicated song.

VGJam Tabs Twisted Metal 2 - "Moscow (track 2)"
Tabs database last modified Tuesday, 01-Nov-2016 19:14:53 UTC.
Copyright © 1999 - 2016 VideoGameJam.com. All rights reserved.