VGJam Tabs Twisted Metal 2
Twisted Metal 2
"Dark Tooth (track 11)" - Guitar tab
Platform(s):PlayStation
Tabbed by:Bennett
Last modified:2001-05-28
Print it:Original file (.TXT)
*----------------------This file from Bennett----------------------*
*-------------Have Fun Practising And Getting It Right-------------*
*--If i haven't got it right i'm sorry but it's the best i can do--*

Date: Monday, 28 of Mai 2001.
From: Eric (Nick) - "Bennett".
Subject: Dark Tooth - Track 11, Twisted Metal 2 (PS1).


		Twisted Metal 2 - Dark Tooth

*Very Important*		
	1.Normal Tuning E,A,D,G,B,E. Starting with the Biggest String.
        2.Heavy Metal sound. Heavy Distortion.

Legend: 
* = Harmonic
/ = Slide
h = Hammer-on
p = Pull-off
" = Block strings
% = Let ring strings
| = Indicates there is a new bar
PM... = Palm Mute
R = Repeat Until you don't need to do it anymore.
WH = Whamy Bar (Vibrato w/ Bar)
~ = Vibrato

Starting Riff. (Riff 1).

                                 PM
|-0-3-0-5-0-3-0-6%-|-0-3-0-5-0-3-0-0%--------------------| E Biggest String
|-2-5-2-7-2-5-2-8%-|-2-5-2-7-2-5-2-2%--------------------| A
|-2-5-2-7-2-5-2-8%-|-2-5-2-7-2-5-2-2%--------------------| D
|------------------|-------------------------------------| G
|------------------|-------------------------------------| B
|------------------|-------------------------------------| E Smallest String

Second Riff (Riff 2)

PM..   ..   ..   ..   .   PM..   ..   ..   ..
|-00-3-00-5-00-3-00-6-0-5-|-00-3-00-5-00-3-00-0%---------|
|-22-5-22-7-22-5-22-8-2-7-|-22-5-22-7-22-5-22-2%---------|
|-------------------------|------------------------------|
|-------------------------|------------------------------|
|-------------------------|------------------------------|
|-------------------------|------------------------------|

The Third Riff. (Riff 3).

PM...............................
|--------------------------------------------------------|
|-5-5-5-5-5-5-5-5-4-4-4-4-4-4-4-4--0-1-0-1-0-1-0-1-------|
|-7-7-7-7-7-7-7-7-6-6-6-6-6-6-6-6--3-3-3-3-3-3-3-3-------|
|--------------------------------------------------------|
|--------------------------------------------------------|
|--------------------------------------------------------|

The Fourth Riff. (Riff 4).


|---------------------------------|----------------------|
|-5-5-5-5-5-5-5-5-4-4-4-4-4-4-4-4-|----------------------|
|-7-7-7-7-7-7-7-7-6-6-6-6-6-6-6-6-|-8---r----------------|
|---------------------------------|-9---r----------------|
|---------------------------------|-10--r----------------|
|---------------------------------|----------------------|

VGJam Tabs Twisted Metal 2 - "Dark Tooth (track 11)"
Tabs database last modified Tuesday, 01-Nov-2016 19:14:53 UTC.
Copyright © 1999 - 2016 VideoGameJam.com. All rights reserved.