VGJam Tabs Twisted Metal 4
Twisted Metal 4
"LA stage" - Guitar tab
Platform(s):PlayStation
Tabbed by:burninballsofury
Last modified:2001-07-10
Print it:Original file (.TXT)
hey this tab is the  "LA stage" music on twisted metal 2 playstaion game
pm............................................................................
-------------------------------------------------------------------------------------------
-------------------------------------------------------------------------------------------  
-------------------------------------------------------------------------------------------
--9--9--9--9-9--9--------------------------------------------------------------------------
--7--7--7--7-7--7-----9--9--9--9--9--9----------6--6--6--6--6---6--------7--7--7--7--7--7--  
----------------------7--7--7--7--7--7----------4--4--4--4--4---4--------5--5--5--5--5--5--

-----------------------------------------------------------------------------------------------
-----------------------------------------------------------------------------------------------
-----------------------------------------------------------------------------------------------
--9--9--9--9-9--9-------------------------------------------------------------------------------
--7--7--7--7-7--7-----9--9--9--9--9--9---------11-11-11--11-11-11------12--12--12--12--12--12     
----------------------7--7--7--7--7--7----------9--9--9---9--9--9------10--10--10--10--10--10


you play the first set of cords then during the second part. guitar 2 starts:
.........................................................................................................
........................................................................................................
...13.....9.......14.....13........9........14........13......9.....8....9...................
.........................................................................................................
...11.....7.......12.....11........7........12........11......7.....6....7....................
........................................................................................................

.........................................................
...........9.....12.....9....11.....16........14..
......9..................................................
.9.......................................................
.........................................................
..........................................................

if you have played the game them you will catch on pretty fast
this is only the begining to the song, if you want the whole thing figure it
out yourself ... :)
any questions? e-mail burninballsofury@aol.com 
VGJam Tabs Twisted Metal 4 - "LA stage"
Tabs database last modified Tuesday, 01-Nov-2016 19:14:53 UTC.
Copyright © 1999 - 2016 VideoGameJam.com. All rights reserved.