VGJam Tabs Twisted Metal 5
Twisted Metal 5
"Track 5" - Guitar tab
Platform(s):PlayStation
Tabbed by:Bennett
Last modified:2001-05-28
Print it:Original file (.TXT)
*----------------------This file from Bennett----------------------*
*-------------Have Fun Practising And Getting It Right-------------*
*--If i haven't got it right i'm sorry but it's the best I can do--*

Date: Monday, 28 of Mai 2001.
From: Eric (Nick) - "Bennett".
Subject: Track 05, Twisted Metal 4 (PS1).


		Twisted Metal 4 - Track 05

*Very Important*		
	1.Tune A FULL STEP DOWN Then Tune DOWN The Biggest String With The 
          Third String From The Top. 
        2.Heavy Metal sound. Heavy Distortion.

Legend: 
* = Harmonic
/ = Slide
h = Hammer-on
p = Pull-off
" = Block strings
% = Let ring strings
| = Indicates there is a new bar
PM... = Palm Mute
R = Repeat Until you don't need to do it anymore.
WH = Whamy Bar (Vibrato w/ Bar)
~ = Vibrato

Starting Riff. (Riff 1).

|-0-0--0-0--0-0--000-0h3-3/5-6---------------------------|
|-0-0--0-0--0-0--000-0h3-3/5-6---------------------------|
|--------------------------------------------------------|
|--------------------------------------------------------|
|--------------------------------------------------------|
|--------------------------------------------------------|

Ending Of the First Riff (Riff 1 End)
                PM
|-0-0--0-0--0-0-0-----6-----6-5--------------------------|
|-0-0--0-0--0-0---5-3---5-3------------------------------|
|--------------------------------------------------------|
|--------------------------------------------------------|
|--------------------------------------------------------|
|--------------------------------------------------------|

The Second Riff. (Riff 2).

|-0h3-33-5-5-6-66-8-88-9-8-6-----------------------------|
|-0h3-33-5-5-6-66-8-88-9-8-6-----------------------------|
|--------------------------------------------------------|
|--------------------------------------------------------|
|--------------------------------------------------------|
|--------------------------------------------------------|

	"The Singer Starts"

*Make (Riff) 1 Again for 4 times
then this 4 times.

The Third Riff. (Riff 3).

|-0-9*--0-9*--0-9*--000-0h3-3/5-6------------------------|
|-0-----0-----0-----000-0h3-3/5-6------------------------|
|--------------------------------------------------------|
|--------------------------------------------------------|
|--------------------------------------------------------|
|--------------------------------------------------------|

	"Remember that on every 4th or 6th time you must do the special 
         bar written on top (second paragraph)."

*Repeat (Riff 2) Again for 4 times.
*Repeat (Riff 1) 4 times.
*Repeat (Riff 3) 4 times.

The Fourth Riff. (Riff 4)
 
           PM                 PM
|-""-5h6p5-00-1-%--|-""-5h6p5-00-1-""---------------------|
|-""-5h6p5-00-1-%--|-""-5h6p5-00-1-""-4-------------------|
|-------------1-%--|-------------1----4-------------------|
|-------------3-%--|-------------3----6-------------------|
|------------------|--------------------------------------|
|------------------|--------------------------------------|

The Fifth Riff (Riff 5)

*Do not play loud and Palm Mute.

PM.......................
|-0-3-0-5-0-6-0-8-8-9-8-6---------------------------------|
|-0-3-0-5-0-6-0-8-8-9-8-6---------------------------------|
|---------------------------------------------------------|
|---------------------------------------------------------|
|---------------------------------------------------------|
|---------------------------------------------------------|

*Repeat (Riff 2).

VGJam Tabs Twisted Metal 5 - "Track 5"
Tabs database last modified Tuesday, 01-Nov-2016 19:14:53 UTC.
Copyright © 1999 - 2016 VideoGameJam.com. All rights reserved.