VGJam Tabs Shin Megami Tensei: Digital Devil Saga 2
Shin Megami Tensei: Digital Devil Saga 2
"Battle for Survival" - Guitar tab
Platform(s):PlayStation 2
Composed by:Shoji Meguro
Tabbed by:redhonour
Last modified:2009-09-07
Date added:2009-12-07
Print it:Original file (.TXT)
Hear it:MIDI file
PS2, SMT: Digital Devil Saga 2
"Battle for Survival"
Original Composer: Shoji Meguro


Standard Tuning: EADGBe


Basic structure:
Intro
Part 1 x4 + Part 3
Part 2
Part 1 x2 + Part 4 x2
Part 1 x2


Guitar 1

Intro

e||----------------------------|
B||----------------------------|
G||----------------------------|
D||--4-4-4-4-------------------|
A||--4-4-4-4-------------------|
E||--2-2-2-2-------------------|


Part 1

    PM   PM----|   PM   PM---|      PM   PM-------------------|
------------------------------|--------------------------------|
------------------------------|--------------------------------|
------------------------------|--6----6------------------------|
--7----7--------4----4--------|--6--6-6--6-6-6-6-6-6-6-6-6-6-6-|
--7--7-7--7-7-7-4--4-4--4-4-4-|--4--4-4--4-4-4-4-4-4-4-4-4-4-4-|
--5--5-5--5-5-5-2--2-2--2-2-2-|--------------------------------|

Part 2

|-------------------------------|---------------------------------|
|-------------------------------|---------------------------------|
|--6---------6-6-6-6---6-7--7-6-|--6-------6---6-6-6-6---6-7--7-6-|
|--6---------6-6-6-6---6-7--7-6-|--6-------6---6-6-6-6---6-7--7-6-|
|--4---------4-4-4-4---4-5--5-4-|--4-------4---4-4-4-4---4-5--5-4-|
|-------------------------------|---------------------------------|

---------------------------------|---------------------------|
---------------------------------|---------------------------|
--6-------6---6-6-6-6---6-7--7-6-|--6---------6-6-6----------|
--6-------6---6-6-6-6---6-7--7-6-|--6---------6-6-6----------|   on the last bar of Part 2 play G2's intro riff 
--4-------4---4-4-4-4---4-5--5-4-|--4---------4-4-4----------|
---------------------------------|---------------------------|


Guitar 2

Intro
e||------------------------------|
B||------------------------------|
G||-----------------------8-9----|
D||------------------9-11-----11-|
A||------------------------------|
E||------------------------------|

Part 3
------------------------------|------------------------------|------------------------------|
------------------------------|------------------------------|------------------------------|
-----------------------8-9-11-|-----------------------8-9----|-----------------------8-9-11-|
------------------9-11--------|------------------9-11-----11-|------------------9-11--------|
------------------------------|------------------------------|------------------------------|
------------------------------|------------------------------|------------------------------|


-------------------------------|------------------------------|-----------------------------|
-------------------------------|------------------------------|-----------------------------|
------------------------8-9----|-----------------------8-9-13-|-----------------------8-9---|
-----11------------9-11-----11-|------------------9-11--------|----11------------9-11-------|
-------------------------------|------------------------------|-----------------------------|
-------------------------------|------------------------------|-----------------------------|



-------------------------------|------------------------------|
-------------------------------|--9---------------------------|
------------------------8-9-11-|---------12------11-----------|
--11---------------9-11--------|----11------11--------11------|
-------------------------------|------------------------------|
-------------------------------|------------------------------|

Part 4
|--------------------------------|--------------------------------|
|--------------------------------|--------------------------------|
|--13----14----13---------8-9----|--13----14----13---------8-9----|
|--------------------9-11-----11-|--------------------9-11-----11-|
|--------------------------------|--------------------------------|
|--------------------------------|--------------------------------|

                                       * play once
---------------------------|--------------------------------|
---------------------12----|--------------------------------|
--13----14----13-----------|--13---------------------8-9----|
---------------------------|-----11---14--------9-11-----11-|
---------------------------|--------------------------------|
---------------------------|--------------------------------|


  ** end with this the 2nd time
--------|
--------|
--13----|
-----11-|
--------|
--------|

Legend: 
PM = palm mute


VGJam Tabs Shin Megami Tensei: Digital Devil Saga 2 - "Battle for Survival"
Tabs database last modified Tuesday, 01-Nov-2016 19:14:53 UTC.
Copyright © 1999 - 2016 VideoGameJam.com. All rights reserved.