VGJam Tabs Um Jammer Lammy
Um Jammer Lammy
"Fright Flight!!" - Guitar tab
Platform(s):PlayStation
Tabbed by:Mothershabooboo
Last modified:2002-05-17
Print it:Original file (.TXT)
Umjammer Lammy - Fright Flight! - Background Guitar
Version 1.0

Tabbed by Mothershabooboo - Lead Singer and Backup Guitar of 
		       HOUSEBROKEN
http://www.mothershabooboo.com/housebroken/

This is my first tab, please send kudos/suggestions/fixes/!
Mshaboobooware@yahoo.com

I'm not going to tab the lead (Lammy's guitar) - I'm not insane. 
So please don't ask.

Play with heavy distortion.
Listen to the song for the exact timing/repeats.

-{UMJAMMER LAMMY ROCKS!}-

Intro
E|-------------------------------------------------|
B|-------------------------------------------------|
G|-------------------------------------------------|
D|-2-2--22-2--22-2--22-2--22-2--22-2--2-----2------|
A|-2-2--22-2--22-2--22-2--22-2--22-2--2------------|
E|-0-0--00-0--00-0--00-0--00-0--00-0--0-3-4---3-4-0|

E|-------------------------------------------------|
B|-------------------------------------------------|
G|-------------------------------------------------|
D|-2-2--22-2--22-2--22-2--22-2--22-2--23-3--3-32---|
A|-2-2--22-2--22-2--22-2--22-2--22-2--23-3--3-32---|
E|-0-0--00-0--00-0--00-0--00-0--00-0--01-1--1-10---|

Crazy Part 1

E|-------------------------------------------------|
B|-------------------------------------------------|
G|-------------------------------------------------|
D|-2-2--22-2--22-2--22-2--22-2--22-2--2-----2------|
A|-2-2--22-2--22-2--22-2--22-2--22-2--2------------|
E|-0-0--00-0--00-0--00-0--00-0--00-0--0-3-4---3-4-0|

Lookup in the sky, give it all you got, never give it up, soldier!

E|-------------------------------------------------|
B|-------------------------------------------------|
G|-------------------------------------------------|
D|-2-2--22-2--22-2--22-2--22-2--22-2--23-3--3-32---|
A|-2-2--22-2--22-2--22-2--22-2--22-2--23-3--3-32---|
E|-0-0--00-0--00-0--00-0--00-0--00-0--01-1--1-10---|

Getup in the morn, run around the track, showme whatcha got, soldier!

Normal Part 1

E|--------------------|     E|---------------------|
B|--------------------|     B|---------------------|
G|-9------------------|     G|-9-------------------|
D|-9---11---9---5--2--|(2x) D|-9---11---9---5-5-4-2| 
A|-7---11---9---5--2--|     A|-7---11---9---5-5-4-2|
E|-----9----7---3--0--|     E|-----9----7---3-3-2-0|

Did I eat my drink?
                          I thought milk was pink?

Crazy Part 2

E|-------------------------------------------------|
B|-------------------------------------------------|
G|-------------------------------------------------|
D|-2-2--22-2--22-2--22-2--22-2--22-2--2-----2------|
A|-2-2--22-2--22-2--22-2--22-2--22-2--2------------|
E|-0-0--00-0--00-0--00-0--00-0--00-0--0-3-4---3-4-0|

Autopilot on, autopilot off!

E|-------------------------------------------------|
B|-------------------------------------------------|
G|-------------------------------------------------|
D|-2-2--22-2--22-2--22-2--22-2--22-2--23-3--3-32---|
A|-2-2--22-2--22-2--22-2--22-2--22-2--23-3--3-32---|
E|-0-0--00-0--00-0--00-0--00-0--00-0--01-1--1-10---|

Littlebita this, littlebita that!

Normal Part 2

E|--------------------|  E|---------------------|
B|--------------------|  B|---------------------|
G|-9------------------|  G|-9-------------------|
D|-9---11---9---5--2--|  D|-9---11---9---5--2---|
A|-7---11---9---5--2--|  A|-7---11---9---5--2---|
E|-----9----7---3--0--|  E|-----9----7---3--0---|

Now do you like munchies?
                          I wonder where lunch is?

Crazy Interlude (Part 3)

E|--------------------| E|--------------------|
B|--------------------| B|--------------------|
G|--------------------| G|--------------------| 
D|-55555-5-5-55555-5-5| D|-55555-5-5-55555-5-5|
A|-55555-5-5-55555-5-5| A|-55555-5-5-55555-5-5|
E|-33333-3-3-33333-3-3| E|-33333-3-3-33333-3-3|

1,2,3,4,5,6
			 Always give it your best!

Normal Interlude (Part 3)

E|------------------------------------| 
B|------------------------------------|
G|------------------------------------| 
D|-55-554-3-55-554-3-55-554-3-55-554-3|
A|-55-554-3-55-554-3-55-554-3-55-554-3| 
E|-33-332-1-33-332-1-33-332-1-33-332-1| 


My Knee's in pain.. So is my brain..

Crazy Part 4

E|----------------------------------------------------|
B|----------------------------------------------------|
G|----------------------------------------------------|
D|-22222--22222--22222-27---22222--22222--22222-2---2-|
A|-22222--22222--22222-27---22222--22222--22222-2-----|
E|-00000--00000--00000-05---00000--00000--00000-0-34--|

Lookup in the sky, give it all you got, never give it up, soldier!

E|----------------------------------------------------|
B|----------------------------------------------------|
G|----------------------------------------------------|
D|-22222--22222--22222-27---22222--22222--22222-2---2-|
A|-22222--22222--22222-27---22222--22222--22222-2-----|
E|-00000--00000--00000-05---00000--00000--00000-0-34--|

Getup in the morn, run around the track, showme whatcha got, soldier!

Normal Part 4

E|--------------------|     E|---------------------|
B|--------------------|     B|---------------------|
G|-9------------------|     G|-9-------------------|
D|-9---11---9---5--2--|(2x) D|-9---11---9---5-5-4-2| (2x)
A|-7---11---9---5--2--|     A|-7---11---9---5-5-4-2|
E|-----9----7---3--0--|     E|-----9----7---3-3-2-0|

I thought I just made some coffee for me
                 I want some apples and berries to eat

Crazy Interlude Again! (Part 5)

E|----------------------------|
B|----------------------------| 
G|-9--9--7-6--6---------------|  (4x)
D|-9--9--7-6--6---------5-----|  
A|-7--7--5-4--4--------55--567|  
E|----------------5567--3-----|

Now it's time to move on....it only gets much harder so carry on!
You think I'm old now....I got the skills to beat you and knock you out!

Normal Interlude (Part 5)

E|------------------------------------| 
B|------------------------------------|
G|------------------------------------| 
D|-55-554-3-55-554-3-55-554-3-55-554-3|
A|-55-554-3-55-554-3-55-554-3-55-554-3| 
E|-33-332-1-33-332-1-33-332-1-33-332-1| 


My Knee's in pain.. So is my brain..

Crazy Interlude (Part 6)

E|--------------------| E|--------------------|
B|--------------------| B|--------------------|
G|--------------------| G|--------------------| 
D|-55555-5-5-55555-5-5| D|-55555-5-5-55555-5-5|
A|-55555-5-5-55555-5-5| A|-55555-5-5-55555-5-5|
E|-33333-3-3-33333-3-3| E|-33333-3-3-33333-3-3|

Throttle up flaps down!
			 Power Up Gears down!

Normal Part 6

E|--------------------|  E|------------------|
B|--------------------|  B|------------------|
G|-9------------------|  G|-9----------------|
D|-9---11---9---5--2--|  D|-9---11---9---5--2|
A|-7---11---9---5--2--|  A|-7---11---9---5--2|
E|-----9----7---3--0--|  E|-----9----7---3--0|

I'm getting sleepy....
                            I want my sheets......

Crazy Part 7

E|----------------------------------------------------|
B|----------------------------------------------------|
G|----------------------------------------------------|
D|-22222--22222--22222-27---22222--22222--22222-2---2-|
A|-22222--22222--22222-27---22222--22222--22222-2-----|
E|-00000--00000--00000-05---00000--00000--00000-0-34--|

Autopilot on, autopilot off! Littlebita this, littlebita that!

Normal Part 7

E|--------------------|  E|----------------------|
B|--------------------|  B|----------------------|
G|-9------------------|  G|-9--------------------|
D|-9---11---9---5--2--|  D|-9---11---9---5---2---|
A|-7---11---9---5--2--|  A|-7---11---9---5---2---|
E|-----9----7---3--0--|  E|-----9----7---3---0---|

Now do you like munchies?
                          I wonder where lunch is?

Crazy Interlude (Part 3)

E|----------------------------------------------------|
B|----------------------------------------------------|
G|----------------------------------------------------|
D|-22222--22222--22222-27---22222--22222--22222-2---2-|
A|-22222--22222--22222-27---22222--22222--22222-2-----|
E|-00000--00000--00000-05---00000--00000--00000-0-34--|

1,2,3,4,5,6
			 Always give it your best!

Normal Part 8

E|------------------------------------------| 
B|------------------------------------------| 
G|------------------------------------------| 
D|-55-554-3-55-554-3-2-2--22-2--22-3-3-2-3-3| (2x)
A|-55-554-3-55-554-3-2-2--22-2--22-3-3-2-3-3| 
E|-33-332-1-33-332-1-0-0--00-0--00-1-1-0-1-1| 


In the old Days I was a hero but, look at me, I'm learning, just how to 
fly!

E|------------------------------------------| 
B|------------------------------------------|
G|------------------------------------------| 
D|-55-554-3-55-554-3-2-2--22-2--22-2--22-2--|
A|-55-554-3-55-554-3-2-2--22-2--22-2--22-2--| 
E|-33-332-1-33-332-1-0-0--00-0--00-0--00-0--| 


I'm still wondering, when we get to rest, I'm hungy, I'm sleepy, don't wanna 
die!

E|----------------------|
B|----------------------| 
G|----------------------| 
D|-55555-5-5-55555-5-5-2|
A|-55555-5-5-55555-5-5-2| 
E|-33333-3-3-33333-3-3-0| 

(FIN!)

VGJam Tabs Um Jammer Lammy - "Fright Flight!!"
Tabs database last modified Tuesday, 01-Nov-2016 19:14:53 UTC.
Copyright © 1999 - 2016 VideoGameJam.com. All rights reserved.