VGJam Tabs Valkyrie Profile
Valkyrie Profile
"Fighting the Shadowy Gods" - Guitar tab
Platform(s):PlayStation
Composed by:Motoi Sakuraba
Soundtrack:Valkyrie Profile Original Sound Track (track D1-14)
Tabbed by:Smeg
Last modified:2003-02-18
Print it:Original file (.TXT)
Valkyrie Profile (PSX) - Fighting the Shadowy Gods

OST disc 1, track 14

Composed by Motoi Sakuraba

Tabbed by Smeg (smeg@fefea.org)


Two guitars:

  e|-14-13-12-11-------------------------------------|
  b|-------------15-14-13-12-------------------------|
  g|-------------------------15-14-13-12-------------|
  d|-------------------------------------16-15-14-13-|
  a|-------------------------------------------------|
  E|-------------------------------------------------|
   |                                                 |
   |                                                 |
  e|-------------------------------------------------|
  b|-15-14-13-12-------------------------------------|
  g|-------------15-14-13-12-------------------------|
  d|-------------------------16-15-14-13-------------|
  a|-------------------------------------17-16-15-14-|
  E|-------------------------------------------------|


  e|----|----|----------------|-------------|----|
  b|-10-|-12-|-10--8-10--8-10-|--8-10--8-10-|-12-|
  g|-10-|-12-|-10--9-10--9-10-|--9-10--9-10-|-12-|
  d|-10-|-12-|-10-10-10-10-10-|-10-10-10-10-|-12-|
  a|----|----|----------------|-------------|----|
  E|----|----|----------------|-------------|----|


  e|--------------|------|--------------|----3-2---|
  b|------------3-|------|------------3-|-5------3-|
  g|-4--------2---|-5----|-2--------2---|----------|
  d|----2-4-5-----|----5-|----2-4-5-----|----------|
  a|--------------|------|--------------|----------|
  E|--------------|------|--------------|----------|


  e|---------|----------|-------------|----|
  b|-5-5-3---|----------|-------------|----|
  g|-------5-|-4------2-|-------2-----|----|
  d|---------|----4-5---|-5-4-5---5-4-|-2--|
  a|---------|----------|-------------|----|
  E|---------|----------|-------------|----|


  e|--------------|------|--------------|----3-2---|
  b|------------3-|------|------------3-|-5------3-|
  g|-4--------2---|-5----|-2--------2---|----------|
  d|----2-4-5-----|----5-|----2-4-5-----|----------|
  a|--------------|------|--------------|----------|
  E|--------------|------|--------------|----------|


  e|-------------|--------2-|-3--|-2-----------|
  b|-5-5-5-5-3---|----4-5---|----|---4---------|
  g|-----------5-|-4--------|----|-----5-2-----|
  d|-------------|----------|----|---------4-1-|
  a|-------------|----------|----|-------------|
  E|-------------|----------|----|-------------|


  e|--------------|---------|--------------|----|
  b|-8-7-8-10-8-7-|-5-7-7-8-|-8-7-8-10-8-5-|-7\-|
  g|-9-7-9-11-9-7-|-7-9-7-9-|-9-7-9-11-9-5-|-7\-|
  d|-9-7-9-11-9-7-|-7-9-7-9-|-9-7-9-11-9-5-|-7\-|
  a|--------------|---------|--------------|----|
  E|--------------|---------|--------------|----|


  e|--------------|---------|-------------8-|----|
  b|-8-7-8-10-8-7-|-5-7-7-8-|-8-7-8-10-8-10-|-12-|
  g|-9-7-9-11-9-7-|-7-9-7-9-|-9-7-9-11-9--9-|-12-|
  d|-9-7-9-11-9-7-|-7-9-7-9-|-9-7-9-11-9----|-12-|
  a|--------------|---------|---------------|----|
  E|--------------|---------|---------------|----|


  e|----------------|----|
  b|-10--8-10--8-10-|-12-|
  g|-10--9-10--9-10-|-12-|
  d|-10-10-10-10-10-|-12-|
  a|----------------|----|
  E|----------------|----|


 Two guitars:

  e|--------------|------|--------------|----3-2---|
  b|------------3-|------|------------3-|-5------3-|
  g|-4--------2---|-5----|-2--------2---|----------|
  d|----2-4-5-----|----5-|----2-4-5-----|----------|
  a|--------------|------|--------------|----------|
  E|--------------|------|--------------|----------|
   |              |      |              |          |
   |              |      |              |          |
  e|--------------|------|--------------|----------|
  b|--------------|------|--------------|----3-3-3-|
  g|--------------|------|------------2-|-4--------|
  d|-2------2-4-5-|-5----|-2------2-4---|----------|
  a|----2-5-------|----3-|----3-5-------|----------|
  E|--------------|------|--------------|----------|


  e|-------------|----------|-------------|----|
  b|-5-5-5-5-3---|----------|-------------|----|
  g|-----------5-|-4------2-|-------2-----|----|
  d|-------------|----4-5---|-5-4-5---5-4-|-2--|
  a|-------------|----------|-------------|----|
  E|-------------|----------|-------------|----|
   |             |          |             |    |
   |             |          |             |    |
  e|-------------|----------|-------------|----|
  b|-------------|----------|-------------|----|
  g|-5-5-5-5-4-2-|----------|-------------|----|
  d|-------------|-4--1-2-4-|-2-0-2-4-2-0-|----|
  a|-------------|----------|-------------|-3--|
  E|-------------|----------|-------------|----|


     E     F    G     A   F       G     G#        A#
  e|-12--|-10-|-12--|---|-12-10-|-----|---------|-10--13--|
  b|-----|----|-----|---|-------|-12--|-----13--|---------|
  g|-----|----|-----|---|-------|-----|-13------|---------|
  d|-----|----|-----|---|-------|-----|---------|---------|
  a|-----|----|-----|---|-------|-----|---------|---------|
  E|-----|----|-----|---|-------|-----|---------|---------|


  e|-----------|--------------|-----15----15-|---------|
  b|-17-----17-|-15-----------|-15-----15----|-17------|
  g|-----16----|-----17p16h17-|--------------|-----14--|
  d|-----------|--------------|--------------|---------|
  a|-----------|--------------|--------------|---------|
  E|-----------|--------------|--------------|---------|


  e|-13-------13-------|-15-13-------------|-----------|-13------|
  b|----17-15----17-15-|-------17-15-------|-13--15-16-|---------|
  g|-------------------|-------------16----|-----------|-----15--|
  d|-------------------|----------------17-|-----------|---------|
  a|-------------------|-------------------|-----------|---------|
  E|-------------------|-------------------|-----------|---------|


 Two guitars here as well:

  e|-----------|--------------|-----15----15-|---------|
  b|-17-----17-|-15-----------|-15-----15----|-17------|
  g|-----16----|-----17p16h17-|--------------|-----14--|
  d|-----------|--------------|--------------|---------|
  a|-----------|--------------|--------------|---------|
  E|-----------|--------------|--------------|---------|
   |           |              |              |         |
   |           |              |              |         |
  e|-----------|--------------|--------------|-----12--|
  b|-12-----12-|--------------|-12--15-12-15-|-14------|
  g|-----13----|-14-----------|--------------|---------|
  d|-----------|-----------15-|--------------|---------|
  a|-----------|--------------|--------------|---------|
  E|-----------|--------------|--------------|---------|


  e|-13-------13-------|-15-13-------------|-----------|-13------|
  b|----17-15----17-15-|-------17-15-------|-13--15-16-|---------|
  g|-------------------|-------------16----|-----------|-----15--|
  d|-------------------|----------------17-|-----------|---------|
  a|-------------------|-------------------|-----------|---------|
  E|-------------------|-------------------|-----------|---------|
   |                   |                   |           |         |
   |                   |                   |           |         |
  e|-------------------|-------------------|-----------|-----13--|
  b|-13-12----13-12----|-15-13-12----------|--------13-|-15------|
  g|-------14-------14-|----------12----12-|-13--15----|---------|
  d|-------------------|-------------12----|-----------|---------|
  a|-------------------|-------------------|-----------|---------|
  E|-------------------|-------------------|-----------|---------|

 Repeat from third staff.

VGJam Tabs Valkyrie Profile - "Fighting the Shadowy Gods"
Tabs database last modified Tuesday, 01-Nov-2016 19:14:53 UTC.
Copyright © 1999 - 2016 VideoGameJam.com. All rights reserved.