VGJam Tabs Valkyrie Profile
Valkyrie Profile
"Behave Irrationally" - Guitar tab
Platform(s):PlayStation
Composed by:Motoi Sakuraba
Soundtrack:Valkyrie Profile Original Sound Track (track D2-24)
Tabbed by:Gren
Last modified:2001-08-21
Print it:Original file (.TXT)
Hear it:MIDI file
Game: Valkyrie Profile
Title: Behave
Tabbed by: Gren (SS1Trunks@aol.com)

-4-2-1-4-2-1-6-4---2-5-7-6-2-1----6
------------3---3-4------------3-5-
-----------------------------------
-----------------------------------
-----------------------------------
-----------------------------------

-16-14-13-16-14-13--18-16-----14-17-19-18-14-13-----18
------------------16-----15-16-----------------15-17--
------------------------------------------------------
------------------------------------------------------
------------------------------------------------------
------------------------------------------------------

thats about it...repeat that again after the bridge. There is
something at the beginning...but I can't figure it out ~shrugs~.

VGJam Tabs Valkyrie Profile - "Behave Irrationally"
Tabs database last modified Tuesday, 01-Nov-2016 19:14:53 UTC.
Copyright © 1999 - 2016 VideoGameJam.com. All rights reserved.