VGJam Tabs Wild Arms
Wild Arms
"Ending" - Guitar tab
Platform(s):PlayStation
Tabbed by:Travis Dagenhardt
Last modified:1999-10-30
Print it:Original file (.TXT)
Created by: Travis Dagenhardt
Song: Tune played in the ending when Cecilia is talking to the Earth Golem.

Notation: /- slide

e|----------3--4--3---1-----1--3-------------------4--3-----1--3--|
B|-------4---------------4--------3----------1--4--------4--------|
G|-0--3------------------------------3----0-----------------------|
D|----------------------------------------------------------------|
A|----------------------------------------------------------------|
E|----------------------------------------------------------------|

e|----------3--4--3---1-----1--3-------------------4--3-----1-----|
B|-------4---------------4--------3----------1--4--------4-----4--|
G|-0--3------------------------------3----0-----------------------|
D|----------------------------------------------------------------|
A|----------------------------------------------------------------|
E|----------------------------------------------------------------|

                            Sl.                     Sl.
e|-3--4----6----3--4----8--------------6--4--------------|
B|-4------------4-----------6/8---6----------4--6---6/8--|
G|-3------------3----------------------------------------|
D|-------------------------------------------------------|
A|-------------------------------------------------------|
E|-------------------------------------------------------|

e|-------------15--16--15---13------13--15------------------------16--15------13------|
B|---------16-------------------16----------15------------13--16----------16------16--|
G|-12--15---------------------------------------15----12------------------------------|
D|------------------------------------------------------------------------------------|
A|------------------------------------------------------------------------------------|
E|------------------------------------------------------------------------------------|

This is the first thing I figured out when i first started playing guitar about a year ago.

preventorwind@hotmail.com

VGJam Tabs Wild Arms - "Ending"
Tabs database last modified Saturday, 12-Apr-2014 00:15:37 CDT.
Copyright © 1999 - 2014 VideoGameJam.com. All rights reserved.